  0
SECTION
  2
HEADER
  9
$ACADVER
  1
AC1018
  9
$ACADMAINTVER
 70
     0
  9
$DWGCODEPAGE
  3
ANSI_1252
  9
$INSBASE
 10
0.0
 20
0.0
 30
0.0
  9
$EXTMIN
 10
-102.4999973121443
 20
-60.00000000000001
 30
-415.0
  9
$EXTMAX
 10
15.00000012905711
 20
60.00000000000001
 30
415.0
  9
$LIMMIN
 10
0.0
 20
0.0
  9
$LIMMAX
 10
12.0
 20
9.0
  9
$ORTHOMODE
 70
     0
  9
$REGENMODE
 70
     1
  9
$FILLMODE
 70
     1
  9
$QTEXTMODE
 70
     0
  9
$MIRRTEXT
 70
     1
  9
$LTSCALE
 40
1.0
  9
$ATTMODE
 70
     1
  9
$TEXTSIZE
 40
0.2
  9
$TRACEWID
 40
0.05
  9
$TEXTSTYLE
  7
Standard
  9
$CLAYER
  8
Predefinito
  9
$CELTYPE
  6
ByLayer
  9
$CECOLOR
 62
   256
  9
$CELTSCALE
 40
1.0
  9
$DISPSILH
 70
     0
  9
$DIMSCALE
 40
1.0
  9
$DIMASZ
 40
0.18
  9
$DIMEXO
 40
0.0625
  9
$DIMDLI
 40
0.38
  9
$DIMRND
 40
0.0
  9
$DIMDLE
 40
0.0
  9
$DIMEXE
 40
0.18
  9
$DIMTP
 40
0.0
  9
$DIMTM
 40
0.0
  9
$DIMTXT
 40
0.18
  9
$DIMCEN
 40
0.09
  9
$DIMTSZ
 40
0.0
  9
$DIMTOL
 70
     0
  9
$DIMLIM
 70
     0
  9
$DIMTIH
 70
     1
  9
$DIMTOH
 70
     1
  9
$DIMSE1
 70
     0
  9
$DIMSE2
 70
     0
  9
$DIMTAD
 70
     0
  9
$DIMZIN
 70
     0
  9
$DIMBLK
  1

  9
$DIMASO
 70
     1
  9
$DIMSHO
 70
     1
  9
$DIMPOST
  1

  9
$DIMAPOST
  1

  9
$DIMALT
 70
     0
  9
$DIMALTD
 70
     2
  9
$DIMALTF
 40
25.4
  9
$DIMLFAC
 40
1.0
  9
$DIMTOFL
 70
     0
  9
$DIMTVP
 40
0.0
  9
$DIMTIX
 70
     0
  9
$DIMSOXD
 70
     0
  9
$DIMSAH
 70
     0
  9
$DIMBLK1
  1

  9
$DIMBLK2
  1

  9
$DIMSTYLE
  2
Standard
  9
$DIMCLRD
 70
     0
  9
$DIMCLRE
 70
     0
  9
$DIMCLRT
 70
     0
  9
$DIMTFAC
 40
1.0
  9
$DIMGAP
 40
0.09
  9
$DIMJUST
 70
     0
  9
$DIMSD1
 70
     0
  9
$DIMSD2
 70
     0
  9
$DIMTOLJ
 70
     1
  9
$DIMTZIN
 70
     0
  9
$DIMALTZ
 70
     0
  9
$DIMALTTZ
 70
     0
  9
$DIMUPT
 70
     0
  9
$DIMDEC
 70
     4
  9
$DIMTDEC
 70
     4
  9
$DIMALTU
 70
     2
  9
$DIMALTTD
 70
     2
  9
$DIMTXSTY
  7
Standard
  9
$DIMAUNIT
 70
     0
  9
$DIMADEC
 70
     0
  9
$DIMALTRND
 40
0.0
  9
$DIMAZIN
 70
     0
  9
$DIMDSEP
 70
    46
  9
$DIMATFIT
 70
     3
  9
$DIMFRAC
 70
     0
  9
$DIMLDRBLK
  1

  9
$DIMLUNIT
 70
     2
  9
$DIMLWD
 70
    -2
  9
$DIMLWE
 70
    -2
  9
$DIMTMOVE
 70
     2
  9
$LUNITS
 70
     2
  9
$LUPREC
 70
     3
  9
$SKETCHINC
 40
0.1
  9
$FILLETRAD
 40
0.5
  9
$AUNITS
 70
     0
  9
$AUPREC
 70
     0
  9
$MENU
  1
.
  9
$ELEVATION
 40
0.0
  9
$PELEVATION
 40
0.0
  9
$THICKNESS
 40
0.0
  9
$LIMCHECK
 70
     0
  9
$CHAMFERA
 40
0.0
  9
$CHAMFERB
 40
0.0
  9
$CHAMFERC
 40
0.0
  9
$CHAMFERD
 40
0.0
  9
$SKPOLY
 70
     0
  9
$TDCREATE
 40
2459027.494159028
  9
$TDUCREATE
 40
2459027.410825694
  9
$TDUPDATE
 40
2459027.494176678
  9
$TDUUPDATE
 40
2459027.410843345
  9
$TDINDWG
 40
0.0000000116
  9
$TDUSRTIMER
 40
0.0000000116
  9
$USRTIMER
 70
     1
  9
$ANGBASE
 50
0.0
  9
$ANGDIR
 70
     0
  9
$PDMODE
 70
     0
  9
$PDSIZE
 40
0.0
  9
$PLINEWID
 40
0.0
  9
$SPLFRAME
 70
     0
  9
$SPLINETYPE
 70
     6
  9
$SPLINESEGS
 70
     8
  9
$HANDSEED
  5
369
  9
$SURFTAB1
 70
     6
  9
$SURFTAB2
 70
     6
  9
$SURFTYPE
 70
     6
  9
$SURFU
 70
     6
  9
$SURFV
 70
     6
  9
$UCSBASE
  2

  9
$UCSNAME
  2

  9
$UCSORG
 10
0.0
 20
0.0
 30
0.0
  9
$UCSXDIR
 10
1.0
 20
0.0
 30
0.0
  9
$UCSYDIR
 10
0.0
 20
1.0
 30
0.0
  9
$UCSORTHOREF
  2

  9
$UCSORTHOVIEW
 70
     0
  9
$UCSORGTOP
 10
0.0
 20
0.0
 30
0.0
  9
$UCSORGBOTTOM
 10
0.0
 20
0.0
 30
0.0
  9
$UCSORGLEFT
 10
0.0
 20
0.0
 30
0.0
  9
$UCSORGRIGHT
 10
0.0
 20
0.0
 30
0.0
  9
$UCSORGFRONT
 10
0.0
 20
0.0
 30
0.0
  9
$UCSORGBACK
 10
0.0
 20
0.0
 30
0.0
  9
$PUCSBASE
  2

  9
$PUCSNAME
  2

  9
$PUCSORG
 10
0.0
 20
0.0
 30
0.0
  9
$PUCSXDIR
 10
1.0
 20
0.0
 30
0.0
  9
$PUCSYDIR
 10
0.0
 20
1.0
 30
0.0
  9
$PUCSORTHOREF
  2

  9
$PUCSORTHOVIEW
 70
     0
  9
$PUCSORGTOP
 10
0.0
 20
0.0
 30
0.0
  9
$PUCSORGBOTTOM
 10
0.0
 20
0.0
 30
0.0
  9
$PUCSORGLEFT
 10
0.0
 20
0.0
 30
0.0
  9
$PUCSORGRIGHT
 10
0.0
 20
0.0
 30
0.0
  9
$PUCSORGFRONT
 10
0.0
 20
0.0
 30
0.0
  9
$PUCSORGBACK
 10
0.0
 20
0.0
 30
0.0
  9
$USERI1
 70
     0
  9
$USERI2
 70
     0
  9
$USERI3
 70
     0
  9
$USERI4
 70
     0
  9
$USERI5
 70
     0
  9
$USERR1
 40
0.0
  9
$USERR2
 40
0.0
  9
$USERR3
 40
0.0
  9
$USERR4
 40
0.0
  9
$USERR5
 40
0.0
  9
$WORLDVIEW
 70
     1
  9
$SHADEDGE
 70
     3
  9
$SHADEDIF
 70
    70
  9
$TILEMODE
 70
     1
  9
$MAXACTVP
 70
    64
  9
$PINSBASE
 10
0.0
 20
0.0
 30
0.0
  9
$PLIMCHECK
 70
     0
  9
$PEXTMIN
 10
1.000000000000000E+20
 20
1.000000000000000E+20
 30
1.000000000000000E+20
  9
$PEXTMAX
 10
-1.000000000000000E+20
 20
-1.000000000000000E+20
 30
-1.000000000000000E+20
  9
$PLIMMIN
 10
0.0
 20
0.0
  9
$PLIMMAX
 10
12.0
 20
9.0
  9
$UNITMODE
 70
     0
  9
$VISRETAIN
 70
     1
  9
$PLINEGEN
 70
     0
  9
$PSLTSCALE
 70
     1
  9
$TREEDEPTH
 70
  3020
  9
$CMLSTYLE
  2
Standard
  9
$CMLJUST
 70
     0
  9
$CMLSCALE
 40
1.0
  9
$PROXYGRAPHICS
 70
     1
  9
$MEASUREMENT
 70
     0
  9
$CELWEIGHT
370
    -1
  9
$ENDCAPS
280
     0
  9
$JOINSTYLE
280
     0
  9
$LWDISPLAY
290
     0
  9
$INSUNITS
 70
     4
  9
$HYPERLINKBASE
  1

  9
$STYLESHEET
  1

  9
$XEDIT
290
     1
  9
$CEPSNTYPE
380
     0
  9
$PSTYLEMODE
290
     1
  9
$FINGERPRINTGUID
  2
{20F7CF7A-61BB-4084-9F6A-B6EDE73326F6}
  9
$VERSIONGUID
  2
{FAEB1C32-E019-11D5-929B-00C0DF256EC4}
  9
$EXTNAMES
290
     1
  9
$PSVPSCALE
 40
0.0
  9
$OLESTARTUP
290
     0
  9
$SORTENTS
280
   127
  9
$INDEXCTL
280
     0
  9
$HIDETEXT
280
     1
  9
$XCLIPFRAME
290
     0
  9
$HALOGAP
280
     0
  9
$OBSCOLOR
 70
   257
  9
$OBSLTYPE
280
     0
  9
$INTERSECTIONDISPLAY
280
     0
  9
$INTERSECTIONCOLOR
 70
   257
  9
$DIMASSOC
280
     2
  9
$PROJECTNAME
  1

  0
ENDSEC
  0
SECTION
  2
CLASSES
  0
CLASS
  1
ACDBDICTIONARYWDFLT
  2
AcDbDictionaryWithDefault
  3
ObjectDBX Classes
 90
        0
 91
        4
280
     0
281
     0
  0
CLASS
  1
VISUALSTYLE
  2
AcDbVisualStyle
  3
ObjectDBX Classes
 90
     4095
 91
        4
280
     0
281
     0
  0
CLASS
  1
MATERIAL
  2
AcDbMaterial
  3
ObjectDBX Classes
 90
     1153
 91
        4
280
     0
281
     0
  0
CLASS
  1
SCALE
  2
AcDbScale
  3
ObjectDBX Classes
 90
     1153
 91
        4
280
     0
281
     0
  0
CLASS
  1
SUN
  2
AcDbSun
  3
SCENEOE
 90
     1153
 91
        4
280
     0
281
     0
  0
CLASS
  1
DICTIONARYVAR
  2
AcDbDictionaryVar
  3
ObjectDBX Classes
 90
        0
 91
        4
280
     0
281
     0
  0
ENDSEC
  0
SECTION
  2
TABLES
  0
TABLE
  2
VPORT
  5
8
330
0
100
AcDbSymbolTable
 70
     1
  0
VPORT
  5
29
330
8
100
AcDbSymbolTableRecord
100
AcDbViewportTableRecord
  2
*Active
 70
     0
 10
0.0
 20
0.0
 11
1.0
 21
1.0
 12
-43.7499985915431
 22
0.0
 13
0.0
 23
0.0
 14
0.5
 24
0.5
 15
0.5
 25
0.5
 16
0.0
 26
0.0
 36
1.0
 17
0.0
 27
0.0
 37
0.0
 40
122.4
 41
0.9791666453433364
 42
50.0
 43
0.0
 44
0.0
 50
0.0
 51
0.0
 71
     0
 72
   100
 73
     1
 74
     3
 75
     0
 76
     0
 77
     0
 78
     0
281
     0
 65
     1
110
0.0
120
0.0
130
0.0
111
1.0
121
0.0
131
0.0
112
0.0
122
1.0
132
0.0
 79
     0
146
0.0
  0
ENDTAB
  0
TABLE
  2
LTYPE
  5
5
330
0
100
AcDbSymbolTable
 70
     1
  0
LTYPE
  5
14
330
5
100
AcDbSymbolTableRecord
100
AcDbLinetypeTableRecord
  2
ByBlock
 70
     0
  3

 72
    65
 73
     0
 40
0.0
  0
LTYPE
  5
15
330
5
100
AcDbSymbolTableRecord
100
AcDbLinetypeTableRecord
  2
ByLayer
 70
     0
  3

 72
    65
 73
     0
 40
0.0
  0
LTYPE
  5
16
330
5
100
AcDbSymbolTableRecord
100
AcDbLinetypeTableRecord
  2
Continuous
 70
     0
  3
Solid line
 72
    65
 73
     0
 40
0.0
  0
ENDTAB
  0
TABLE
  2
LAYER
  5
2
330
0
100
AcDbSymbolTable
 70
     2
  0
LAYER
  5
10
330
2
100
AcDbSymbolTableRecord
100
AcDbLayerTableRecord
  2
0
 70
     0
 62
     7
  6
Continuous
370
    -3
390
F
  0
LAYER
  5
6A
330
2
100
AcDbSymbolTableRecord
100
AcDbLayerTableRecord
  2
Predefinito
 70
     0
 62
    18
420
        0
  6
Continuous
370
    -3
390
F
  0
ENDTAB
  0
TABLE
  2
STYLE
  5
3
330
0
100
AcDbSymbolTable
 70
     1
  0
STYLE
  5
11
330
3
100
AcDbSymbolTableRecord
100
AcDbTextStyleTableRecord
  2
Standard
 70
     0
 40
0.0
 41
1.0
 50
0.0
 71
     0
 42
0.2
  3
txt
  4

  0
ENDTAB
  0
TABLE
  2
VIEW
  5
6
330
0
100
AcDbSymbolTable
 70
     0
  0
ENDTAB
  0
TABLE
  2
UCS
  5
7
330
0
100
AcDbSymbolTable
 70
     0
  0
ENDTAB
  0
TABLE
  2
APPID
  5
9
330
0
100
AcDbSymbolTable
 70
     1
  0
APPID
  5
12
330
9
100
AcDbSymbolTableRecord
100
AcDbRegAppTableRecord
  2
ACAD
 70
     0
  0
ENDTAB
  0
TABLE
  2
DIMSTYLE
  5
A
330
0
100
AcDbSymbolTable
 70
     1
100
AcDbDimStyleTable
  0
DIMSTYLE
105
27
330
A
100
AcDbSymbolTableRecord
100
AcDbDimStyleTableRecord
  2
Standard
 70
     0
178
     0
340
11
  0
ENDTAB
  0
TABLE
  2
BLOCK_RECORD
  5
1
330
0
100
AcDbSymbolTable
 70
    10
  0
BLOCK_RECORD
  5
1F
330
1
100
AcDbSymbolTableRecord
100
AcDbBlockTableRecord
  2
*Model_Space
340
22
  0
BLOCK_RECORD
  5
1B
330
1
100
AcDbSymbolTableRecord
100
AcDbBlockTableRecord
  2
*Paper_Space
340
1E
  0
BLOCK_RECORD
  5
23
330
1
100
AcDbSymbolTableRecord
100
AcDbBlockTableRecord
  2
*Paper_Space0
340
26
  0
BLOCK_RECORD
  5
6B
330
1
100
AcDbSymbolTableRecord
100
AcDbBlockTableRecord
  2
3600A414-00
340
0
102
{BLKREFS
331
32B
102
}
  0
BLOCK_RECORD
  5
6C
330
1
100
AcDbSymbolTableRecord
100
AcDbBlockTableRecord
  2
10RA06960YY
340
0
102
{BLKREFS
331
9F
102
}
  0
BLOCK_RECORD
  5
A0
330
1
100
AcDbSymbolTableRecord
100
AcDbBlockTableRecord
  2
10RA07160YY
340
0
102
{BLKREFS
331
E5
331
E6
102
}
  0
BLOCK_RECORD
  5
E7
330
1
100
AcDbSymbolTableRecord
100
AcDbBlockTableRecord
  2
10RA07260YY
340
0
102
{BLKREFS
331
122
331
123
102
}
  0
BLOCK_RECORD
  5
124
330
1
100
AcDbSymbolTableRecord
100
AcDbBlockTableRecord
  2
10RA07060YY
340
0
102
{BLKREFS
331
166
331
167
102
}
  0
BLOCK_RECORD
  5
168
330
1
100
AcDbSymbolTableRecord
100
AcDbBlockTableRecord
  2
10RA07360YY
340
0
102
{BLKREFS
331
2C3
102
}
  0
BLOCK_RECORD
  5
169
330
1
100
AcDbSymbolTableRecord
100
AcDbBlockTableRecord
  2
10RA07360YY_01
340
0
102
{BLKREFS
331
263
331
264
102
}
  0
BLOCK_RECORD
  5
265
330
1
100
AcDbSymbolTableRecord
100
AcDbBlockTableRecord
  2
10RA07360YY_00
340
0
102
{BLKREFS
331
2BF
331
2C0
102
}
  0
BLOCK_RECORD
  5
2C4
330
1
100
AcDbSymbolTableRecord
100
AcDbBlockTableRecord
  2
3600SC01-00
340
0
102
{BLKREFS
331
328
102
}
  0
ENDTAB
  0
ENDSEC
  0
SECTION
  2
BLOCKS
  0
BLOCK
  5
20
330
1F
100
AcDbEntity
  8
0
100
AcDbBlockBegin
  2
*Model_Space
 70
     0
 10
0.0
 20
0.0
 30
0.0
  3
*Model_Space
  1
*Model_Space
  0
ENDBLK
  5
21
330
1F
100
AcDbEntity
  8
0
100
AcDbBlockEnd
  0
BLOCK
  5
1C
330
1B
100
AcDbEntity
 67
     1
  8
0
100
AcDbBlockBegin
  2
*Paper_Space
 70
     0
 10
0.0
 20
0.0
 30
0.0
  3
*Paper_Space
  1
*Paper_Space
  0
ENDBLK
  5
1D
330
1B
100
AcDbEntity
 67
     1
  8
0
100
AcDbBlockEnd
  0
BLOCK
  5
24
330
23
100
AcDbEntity
  8
0
100
AcDbBlockBegin
  2
*Paper_Space0
 70
     0
 10
0.0
 20
0.0
 30
0.0
  3
*Paper_Space0
  1
*Paper_Space0
  0
ENDBLK
  5
25
330
23
100
AcDbEntity
  8
0
100
AcDbBlockEnd
  0
BLOCK
  5
329
330
6B
100
AcDbEntity
  8
0
100
AcDbBlockBegin
  2
3600A414-00
 70
     0
 10
0.0
 20
0.0
 30
0.0
  3
3600A414-00
  1
3600A414-00
  0
INSERT
  5
9F
330
6B
100
AcDbEntity
  8
Predefinito
100
AcDbBlockReference
  2
10RA06960YY
 10
0.0000001290570936
 20
-0.0000000000000049
 30
0.0000000000000104
 50
270.0
  0
INSERT
  5
E5
330
6B
100
AcDbEntity
  8
Predefinito
100
AcDbBlockReference
  2
10RA07160YY
 10
-0.0000000000000547
 20
378.0
 30
-51.50000000000012
 50
180.0
210
1.0
220
2.498001805406600E-16
230
-3.190404105466620E-16
  0
INSERT
  5
E6
330
6B
100
AcDbEntity
  8
Predefinito
100
AcDbBlockReference
  2
10RA07160YY
 10
0.0000000000000319
 20
-378.0
 30
-51.49999999999991
 50
359.9999999999999
210
1.0
220
6.383782391594650E-16
230
-2.259423881039600E-16
  0
INSERT
  5
122
330
6B
100
AcDbEntity
  8
Predefinito
100
AcDbBlockReference
  2
10RA07260YY
 10
-0.0000000000000433
 20
-378.0
 30
32.5
 50
0.0000000000000445
210
-1.0
220
-1.331494374612080E-15
230
-9.394603173097021E-18
  0
INSERT
  5
123
330
6B
100
AcDbEntity
  8
Predefinito
100
AcDbBlockReference
  2
10RA07260YY
 10
0.0000000000000522
 20
378.0
 30
32.50000000000003
 50
0.0000000000000413
210
-1.0
220
-1.025398910232010E-16
230
7.055649724807560E-17
  0
INSERT
  5
166
330
6B
100
AcDbEntity
  8
Predefinito
100
AcDbBlockReference
  2
10RA07060YY
 10
0.0000000000000254
 20
0.0000000000001408
 30
-415.0
 50
360.0
210
-6.924028320737299E-17
220
3.261280134836400E-16
230
-1.0
  0
INSERT
  5
167
330
6B
100
AcDbEntity
  8
Predefinito
100
AcDbBlockReference
  2
10RA07060YY
 10
-0.0000000000000087
 20
0.0000000000001227
 30
-415.0
 50
180.0
  0
INSERT
  5
2C3
330
6B
100
AcDbEntity
  8
Predefinito
100
AcDbBlockReference
  2
10RA07360YY
 10
-32.4999973121437
 20
-0.0000000000000149
 30
-0.0000000000000473
 50
270.0
  0
INSERT
  5
328
330
6B
100
AcDbEntity
  8
Predefinito
100
AcDbBlockReference
  2
3600SC01-00
 10
0.0000001290570936
 20
-0.0000000000000005
 30
-0.0000000000000208
 50
180.0
  0
ENDBLK
  5
32A
330
6B
100
AcDbEntity
  8
0
100
AcDbBlockEnd
  0
BLOCK
  5
9D
330
6C
100
AcDbEntity
  8
0
100
AcDbBlockBegin
  2
10RA06960YY
 70
     0
 10
0.0
 20
0.0
 30
0.0
  3
10RA06960YY
  1
10RA06960YY
  0
ARC
  5
6D
330
6C
100
AcDbEntity
  8
Predefinito
 62
     9
420
 12632256
100
AcDbCircle
 10
0.0
 20
0.0
 30
-405.0000000000001
 40
8.5
100
AcDbArc
 50
180.0
 51
0.0
  0
ARC
  5
6E
330
6C
100
AcDbEntity
  8
Predefinito
 62
     9
420
 12632256
100
AcDbCircle
 10
0.0
 20
0.0
 30
-405.0000000000001
 40
8.5
100
AcDbArc
 50
0.0
 51
180.0
  0
ARC
  5
6F
330
6C
100
AcDbEntity
  8
Predefinito
 62
     9
420
 12632256
100
AcDbCircle
 10
0.0
 20
0.0
 30
405.0
 40
8.5
100
AcDbArc
 50
0.000000000000007
 51
180.0
  0
ARC
  5
70
330
6C
100
AcDbEntity
  8
Predefinito
 62
     9
420
 12632256
100
AcDbCircle
 10
0.0
 20
0.0
 30
405.0
 40
8.5
100
AcDbArc
 50
180.0
 51
0.0
  0
LINE
  5
71
330
6C
100
AcDbEntity
  8
Predefinito
 62
     9
420
 12632256
100
AcDbLine
 10
-8.5
 20
-0.0000000000000004
 30
404.9999999999999
 11
-8.5
 21
-0.0000000000000004
 31
-405.0000000000002
  0
ARC
  5
72
330
6C
100
AcDbEntity
  8
Predefinito
 62
     9
420
 12632256
100
AcDbCircle
 10
0.0
 20
0.0
 30
-405.0000000000001
 40
9.0
100
AcDbArc
 50
0.0
 51
180.0
  0
ARC
  5
73
330
6C
100
AcDbEntity
  8
Predefinito
 62
     9
420
 12632256
100
AcDbCircle
 10
0.0
 20
0.0
 30
-405.0000000000001
 40
9.0
100
AcDbArc
 50
180.0
 51
0.0
  0
ARC
  5
74
330
6C
100
AcDbEntity
  8
Predefinito
 62
     9
420
 12632256
100
AcDbCircle
 10
0.0
 20
0.0
 30
405.0
 40
9.0
100
AcDbArc
 50
180.0
 51
0.0
  0
ARC
  5
75
330
6C
100
AcDbEntity
  8
Predefinito
 62
     9
420
 12632256
100
AcDbCircle
 10
0.0
 20
0.0
 30
405.0
 40
9.0
100
AcDbArc
 50
0.000000000000007
 51
180.0
  0
LINE
  5
76
330
6C
100
AcDbEntity
  8
Predefinito
 62
     9
420
 12632256
100
AcDbLine
 10
-9.0
 20
-0.0000000000000004
 30
405.0
 11
-9.0
 21
-0.0000000000000004
 31
-405.0000000000002
  0
SPLINE
  5
77
330
6C
100
AcDbEntity
  8
Predefinito
 62
     9
420
 12632256
100
AcDbSpline
 70
     0
 71
     3
 72
    22
 73
    18
 74
     0
 42
0.000000001
 43
0.0000000001
 40
0.007853883704192
 40
0.007853883704192
 40
0.007853883704192
 40
0.007853883704192
 40
0.0088307816922473
 40
0.0088307816922473
 40
0.0098182445520947
 40
0.0098182445520947
 40
0.0108050588974876
 40
0.0108050588974876
 40
0.0117801420928192
 40
0.0117801420928192
 40
0.0127562508993305
 40
0.0127562508993305
 40
0.0137430424248176
 40
0.0137430424248176
 40
0.0147307683049217
 40
0.0147307683049217
 40
0.0157077674083839
 40
0.0157077674083839
 40
0.0157077674083839
 40
0.0157077674083839
 10
0.0010669573739047
 20
-8.999999936755662
 30
-380.4999997723204
 10
-0.3484871084483739
 20
-9.000030111970355
 30
-380.5001489560492
 10
-0.6762595615434007
 20
-8.978218814800979
 30
-380.4281525105903
 10
-1.271522563820023
 20
-8.912554862481349
 30
-380.1768618073265
 10
-1.53948934977191
 20
-8.868471470729112
 30
-379.9960904682875
 10
-1.996249867200447
 20
-8.780869354814252
 30
-379.539238121051
 10
-2.176572412230064
 20
-8.735913748303743
 30
-379.271902573348
 10
-2.427580846215255
 20
-8.668544292609038
 30
-378.6779147617759
 10
-2.499858731611512
 20
-8.645868822495878
 30
-378.3508337209378
 10
-2.500141010248918
 20
-8.645747697173912
 30
-377.6508145463737
 10
-2.4279829771183
 20
-8.668392828149223
 30
-377.3233962288392
 10
-2.177153004206542
 20
-8.73574468140427
 30
-376.7291092480198
 10
-1.996998316252998
 20
-8.780690137575792
 30
-376.4617374562717
 10
-1.540428156507295
 20
-8.868291379463884
 30
-376.0046222050287
 10
-1.272540064646975
 20
-8.912406867759335
 30
-375.8237239890505
 10
-0.6773278004918791
 20
-8.978133483447682
 30
-375.5721444147105
 10
-0.3495700601961839
 20
-8.999983806842094
 30
-375.4999999999998
 10
0.0000000000000059
 20
-9.000000000000034
 30
-375.4999999999998
  0
SPLINE
  5
78
330
6C
100
AcDbEntity
  8
Predefinito
 62
     9
420
 12632256
100
AcDbSpline
 70
     0
 71
     3
 72
    22
 73
    18
 74
     0
 42
0.000000001
 43
0.0000000001
 40
0.0
 40
0.0
 40
0.0
 40
0.0
 40
0.000977027186073
 40
0.000977027186073
 40
0.0019645315427868
 40
0.0019645315427868
 40
0.0029516848568462
 40
0.0029516848568462
 40
0.0039273854284563
 40
0.0039273854284563
 40
0.0049029115162199
 40
0.0049029115162199
 40
0.005889775305585
 40
0.005889775305585
 40
0.0068770499251504
 40
0.0068770499251504
 40
0.007853883704192
 40
0.007853883704192
 40
0.007853883704192
 40
0.007853883704192
 10
0.0000000000000059
 20
-9.000000000000034
 30
-375.4999999999998
 10
0.3494745405795104
 20
-9.000016188733213
 30
-375.4999999999998
 10
0.6771255697135663
 20
-8.978196688261791
 30
-375.572102708689
 10
1.272087871630214
 20
-8.912516974289655
 30
-375.8234886620025
 10
1.539848933470585
 20
-8.868422915869443
 30
-376.0042072226805
 10
1.996438892288448
 20
-8.780787951720624
 30
-376.4610129501488
 10
2.176681405256095
 20
-8.735792957553294
 30
-376.7282997062612
 10
2.427638498380298
 20
-8.668401608225668
 30
-377.3222766917092
 10
2.499917747248207
 20
-8.645749354388178
 30
-377.6495076306687
 10
2.500082100139901
 20
-8.645867628233745
 30
-378.3492554237184
 10
2.428000216721252
 20
-8.668503390950779
 30
-378.6764531423891
 10
2.177311230918923
 20
-8.735779193098384
 30
-379.2706268129114
 10
1.997155700857683
 20
-8.780671911825774
 30
-379.5380545036621
 10
1.540781972896265
 20
-8.868228599392646
 30
-379.9950740016004
 10
1.273046725859443
 20
-8.912333078644162
 30
-380.1759518460177
 10
0.6781693188129924
 20
-8.97808986051903
 30
-380.4276084866488
 10
0.3505441432868888
 20
-8.99996976817762
 30
-380.4998506214026
 10
0.0010669573739047
 20
-8.999999936755662
 30
-380.4999997723204
  0
SPLINE
  5
79
330
6C
100
AcDbEntity
  8
Predefinito
 62
     9
420
 12632256
100
AcDbSpline
 70
     0
 71
     3
 72
    18
 73
    14
 74
     0
 42
0.000000001
 43
0.0000000001
 40
0.0
 40
0.0
 40
0.0
 40
0.0
 40
0.0009780335449659
 40
0.0009780335449659
 40
0.0019678562884229
 40
0.0019678562884229
 40
0.0039294763753165
 40
0.0039294763753165
 40
0.0058911766722361
 40
0.0058911766722361
 40
0.0068808770308788
 40
0.0068808770308788
 40
0.0078587720129159
 40
0.0078587720129159
 40
0.0078587720129159
 40
0.0078587720129159
 10
0.0000000000000027
 20
-8.500000000000032
 30
-375.5
 10
0.3521401812456217
 20
-8.500012726405481
 30
-375.5
 10
0.6798625647151274
 20
-8.476887365454605
 30
-375.5729626207184
 10
1.273672998801912
 20
-8.407264838516866
 30
-375.8244605219495
 10
1.540271469141075
 20
-8.360489309298591
 30
-376.004617573051
 10
2.220003186936962
 20
-8.22200388927474
 30
-376.6847074418639
 10
2.49983740227959
 20
-8.123898705259917
 30
-377.3123468664353
 10
2.500162464470667
 20
-8.1241787249384
 30
-378.6864984531999
 10
2.220535322945396
 20
-8.221958410792002
 30
-379.3144373586589
 10
1.540988922122129
 20
-8.360317933912475
 30
-379.9948271051292
 10
1.274447240189553
 20
-8.407103962441223
 30
-380.175081289294
 10
0.6807930233344295
 20
-8.476794624790912
 30
-380.4267716504728
 10
0.3531525825162508
 20
-8.499975063425026
 30
-380.4998501624146
 10
0.0010623118769667
 20
-8.499999933617264
 30
-380.4999997742987
  0
SPLINE
  5
7A
330
6C
100
AcDbEntity
  8
Predefinito
 62
     9
420
 12632256
100
AcDbSpline
 70
     0
 71
     3
 72
    18
 73
    14
 74
     0
 42
0.000000001
 43
0.0000000001
 40
0.0078587720129159
 40
0.0078587720129159
 40
0.0078587720129159
 40
0.0078587720129159
 40
0.0088368277762647
 40
0.0088368277762647
 40
0.0098264849005352
 40
0.0098264849005352
 40
0.0117879031055444
 40
0.0117879031055444
 40
0.0137496200448562
 40
0.0137496200448562
 40
0.0147396500395936
 40
0.0147396500395936
 40
0.0157175440258317
 40
0.0157175440258317
 40
0.0157175440258317
 40
0.0157175440258317
 10
0.0010623118769667
 20
-8.499999933617264
 30
-380.4999997742987
 10
-0.3511543863467654
 20
-8.50002481273982
 30
-380.5001494399049
 10
-0.6789984020065409
 20
-8.476906664396218
 30
-380.4272932569301
 10
-1.273027533402572
 20
-8.407309896143428
 30
-380.1759240103867
 10
-1.539750201224501
 20
-8.360559434298366
 30
-379.9957939066943
 10
-2.219795124071994
 20
-8.222152960367193
 30
-379.3157185597343
 10
-2.499779116309111
 20
-8.124146746886042
 30
-378.6880584390374
 10
-2.50022065937005
 20
-8.123930125267258
 30
-377.3134429485231
 10
-2.220526826256258
 20
-8.221929460539412
 30
-376.6854723494864
 10
-1.540678883774604
 20
-8.360383670915182
 30
-376.004903768186
 10
-1.273960888276125
 20
-8.407179900583657
 30
-375.8246035172851
 10
-0.6799555097017443
 20
-8.476838523939891
 30
-375.5729811889313
 10
-0.3521805037437466
 20
-8.49998727213732
 30
-375.5
 10
0.0000000000000027
 20
-8.500000000000032
 30
-375.5
  0
LINE
  5
7B
330
6C
100
AcDbEntity
  8
Predefinito
 62
     9
420
 12632256
100
AcDbLine
 10
0.0000000000000059
 20
-9.000000000000034
 30
-375.4999999999998
 11
0.0000000000000027
 21
-8.500000000000032
 31
-375.5
  0
SPLINE
  5
7C
330
6C
100
AcDbEntity
  8
Predefinito
 62
     9
420
 12632256
100
AcDbSpline
 70
     0
 71
     3
 72
    22
 73
    18
 74
     0
 42
0.000000001
 43
0.0000000001
 40
-0.007853883704192
 40
-0.007853883704192
 40
-0.007853883704192
 40
-0.007853883704192
 40
-0.0068771225581193
 40
-0.0068771225581193
 40
-0.0058897831457269
 40
-0.0058897831457269
 40
-0.004902988301184
 40
-0.004902988301184
 40
-0.0039274161751297
 40
-0.0039274161751297
 40
-0.0029517621720201
 40
-0.0029517621720201
 40
-0.0019645315427869
 40
-0.0019645315427869
 40
-0.0009771004955492
 40
-0.0009771004955492
 40
0.0
 40
0.0
 40
0.0
 40
0.0
 10
-0.0010669573738939
 20
-8.999999936755662
 30
375.5000002276795
 10
-0.3505181577342802
 20
-8.99996977042082
 30
375.5001493675072
 10
-0.6781207075876938
 20
-8.978093114181387
 30
375.5723809472274
 10
-1.273005016886365
 20
-8.91233983131107
 30
375.8240204050553
 10
-1.540760781033032
 20
-8.868232498387988
 30
376.0049061836658
 10
-1.997135100595729
 20
-8.780676030680809
 30
376.4619234606201
 10
-2.177282040273115
 20
-8.735786447825976
 30
376.7293292638171
 10
-2.427985142431737
 20
-8.668508008602153
 30
377.3234861589661
 10
-2.500077482071205
 20
-8.645869059880729
 30
377.6506963445636
 10
-2.499922388606879
 20
-8.645747939551976
 30
378.3504412323418
 10
-2.427653677924484
 20
-8.668396962789924
 30
378.6776622774619
 10
-2.176709795806307
 20
-8.735785909409236
 30
379.2716584926893
 10
-1.996456769479311
 20
-8.780784520486652
 30
379.538969164212
 10
-1.53986588444457
 20
-8.868419662407645
 30
379.9957758183349
 10
-1.272127571407659
 20
-8.912510427459623
 30
380.1764843694216
 10
-0.6771746273650977
 20
-8.978193413764979
 30
380.4278866488139
 10
-0.3495007627725839
 20
-9.000016189947905
 30
380.4999999999999
 10
0.0000000000000042
 20
-9.000000000000034
 30
380.4999999999999
  0
SPLINE
  5
7D
330
6C
100
AcDbEntity
  8
Predefinito
 62
     9
420
 12632256
100
AcDbSpline
 70
     0
 71
     3
 72
    22
 73
    18
 74
     0
 42
0.000000001
 43
0.0000000001
 40
-0.0157077674083839
 40
-0.0157077674083839
 40
-0.0157077674083839
 40
-0.0157077674083839
 40
-0.0147308413669273
 40
-0.0147308413669273
 40
-0.0137430424248175
 40
-0.0137430424248175
 40
-0.0127563280763365
 40
-0.0127563280763365
 40
-0.0117801420928189
 40
-0.0117801420928189
 40
-0.0108051357648766
 40
-0.0108051357648766
 40
-0.0098182526852417
 40
-0.0098182526852417
 40
-0.0088308546094811
 40
-0.0088308546094811
 40
-0.007853883704192
 40
-0.007853883704192
 40
-0.007853883704192
 40
-0.007853883704192
 10
0.0000000000000042
 20
-9.000000000000034
 30
380.4999999999999
 10
0.3495439186269826
 20
-8.99998380805305
 30
380.4999999999999
 10
0.6772788908597926
 20
-8.978136751349968
 30
380.427866197885
 10
1.272500488525669
 20
-8.912413394199337
 30
380.1763029085032
 10
1.54041126228728
 20
-8.868294620925523
 30
379.9953947093609
 10
1.996980470516231
 20
-8.780693561603112
 30
379.5382804107705
 10
2.17712466800927
 20
-8.735751711769097
 30
379.2709325068684
 10
2.427971771041256
 20
-8.668396409210409
 30
378.6766554263299
 10
2.500141021414162
 20
-8.645747692382942
 30
378.3492131420256
 10
2.499858742731868
 20
-8.645868817724132
 30
377.6491938563819
 10
2.427592038647978
 20
-8.668540717661415
 30
377.3221366879552
 10
2.176601699770983
 20
-8.735906465440193
 30
376.7281414708138
 10
1.996270609510928
 20
-8.780865203041476
 30
376.4607840840675
 10
1.53951078800892
 20
-8.868467532779352
 30
376.0039295148963
 10
1.271564543090187
 20
-8.912548079345644
 30
375.8231660617632
 10
0.6763083812866292
 20
-8.978215558618823
 30
375.5718580605846
 10
0.3485131997249183
 20
-9.000030114222682
 30
375.4998510328154
 10
-0.0010669573738939
 20
-8.999999936755662
 30
375.5000002276795
  0
SPLINE
  5
7E
330
6C
100
AcDbEntity
  8
Predefinito
 62
     9
420
 12632256
100
AcDbSpline
 70
     0
 71
     3
 72
    18
 73
    14
 74
     0
 42
0.000000001
 43
0.0000000001
 40
-0.0157175440258317
 40
-0.0157175440258317
 40
-0.0157175440258317
 40
-0.0157175440258317
 40
-0.0147395594191127
 40
-0.0147395594191127
 40
-0.0137496200448562
 40
-0.0137496200448562
 40
-0.0117879031055444
 40
-0.0117879031055444
 40
-0.009826494412222
 40
-0.009826494412222
 40
-0.0088367373622977
 40
-0.0088367373622977
 40
-0.0078587720129159
 40
-0.0078587720129159
 40
-0.0078587720129159
 40
-0.0078587720129159
 10
0.0000000000000026
 20
-8.500000000000037
 30
380.5000000000001
 10
0.3522131399671393
 20
-8.499987270957847
 30
380.5000000000001
 10
0.680016108754991
 20
-8.476834233397431
 30
380.4270055506223
 10
1.274009628414643
 20
-8.407171333781903
 30
380.175363271613
 10
1.540699755532522
 20
-8.36037942028415
 30
379.9950753379321
 10
2.220526826256251
 20
-8.221929460539414
 30
379.3145276505138
 10
2.500220659370041
 20
-8.123930125267258
 30
378.6865570514771
 10
2.499779117379663
 20
-8.124146746360836
 30
377.3119448937338
 10
2.21979779663301
 20
-8.222152051358616
 30
376.6842874757285
 10
1.539734613466154
 20
-8.360562791022591
 30
376.004188807975
 10
1.272981758624654
 20
-8.407318102249523
 30
375.8240440914093
 10
0.6789379378325808
 20
-8.476910938399527
 30
375.5726935393769
 10
0.3511218265376913
 20
-8.50002481043993
 30
375.4998505739306
 10
-0.0010623118769528
 20
-8.499999933617264
 30
375.5000002257013
  0
SPLINE
  5
7F
330
6C
100
AcDbEntity
  8
Predefinito
 62
     9
420
 12632256
100
AcDbSpline
 70
     0
 71
     3
 72
    18
 73
    14
 74
     0
 42
0.000000001
 43
0.0000000001
 40
-0.0078587720129159
 40
-0.0078587720129159
 40
-0.0078587720129159
 40
-0.0078587720129159
 40
-0.0068807869095409
 40
-0.0068807869095409
 40
-0.0058911859865946
 40
-0.0058911859865946
 40
-0.0039294689188212
 40
-0.0039294689188212
 40
-0.001967856288423
 40
-0.001967856288423
 40
-0.0009779426543679
 40
-0.0009779426543679
 40
0.0
 40
0.0
 40
0.0
 40
0.0
 10
-0.0010623118769528
 20
-8.499999933617264
 30
375.5000002257013
 10
-0.353185030628604
 20
-8.499975061133028
 30
375.5001498513734
 10
-0.6808532641274542
 20
-8.476790352045187
 30
375.573241554163
 10
-1.274492881949065
 20
-8.407095771325773
 30
375.8249505468226
 10
-1.541004538075393
 20
-8.360314575298672
 30
376.0051901918399
 10
-2.22053442541575
 20
-8.221958948595173
 30
376.6855584488548
 10
-2.500164617484088
 20
-8.124177958434803
 30
377.313502919282
 10
-2.499835247656777
 20
-8.123899470267485
 30
378.6876589452992
 10
-2.220001469669609
 20
-8.222004239142901
 30
379.3152942763083
 10
-1.540250536591835
 20
-8.360493574000085
 30
379.9954033705276
 10
-1.273624124421279
 20
-8.407273428857385
 30
380.1755727680589
 10
-0.6798018030001
 20
-8.47689166342614
 30
380.4270506725059
 10
-0.3521074561598187
 20
-8.500012725222797
 30
380.5000000000001
 10
0.0000000000000026
 20
-8.500000000000037
 30
380.5000000000001
  0
LINE
  5
80
330
6C
100
AcDbEntity
  8
Predefinito
 62
     9
420
 12632256
100
AcDbLine
 10
0.0000000000000042
 20
-9.000000000000034
 30
380.4999999999999
 11
0.0000000000000026
 21
-8.500000000000037
 31
380.5000000000001
  0
CIRCLE
  5
81
330
6C
100
AcDbEntity
  8
Predefinito
 62
     9
420
 12632256
100
AcDbCircle
 10
0.0
 20
0.0
 30
0.0
 40
8.5
  0
LINE
  5
82
330
6C
100
AcDbEntity
  8
Predefinito
 62
     9
420
 12632256
100
AcDbLine
 10
0.0
 20
8.5
 30
405.0
 11
0.0
 21
8.5
 31
-405.0000000000002
  0
LINE
  5
83
330
6C
100
AcDbEntity
  8
Predefinito
 62
     9
420
 12632256
100
AcDbLine
 10
8.5
 20
0.0
 30
405.0
 11
8.5
 21
0.0
 31
-405.0000000000002
  0
LINE
  5
84
330
6C
100
AcDbEntity
  8
Predefinito
 62
     9
420
 12632256
100
AcDbLine
 10
0.0
 20
-8.5
 30
405.0000000000001
 11
0.0
 21
-8.5
 31
380.5000000000002
  0
LINE
  5
85
330
6C
100
AcDbEntity
  8
Predefinito
 62
     9
420
 12632256
100
AcDbLine
 10
0.0
 20
-8.5
 30
375.5000003117848
 11
0.0
 21
-8.5
 31
-375.4999999999999
  0
LINE
  5
86
330
6C
100
AcDbEntity
  8
Predefinito
 62
     9
420
 12632256
100
AcDbLine
 10
0.0
 20
-8.5
 30
-380.4999996882156
 11
0.0
 21
-8.5
 31
-405.0000000000002
  0
CIRCLE
  5
87
330
6C
100
AcDbEntity
  8
Predefinito
 62
     9
420
 12632256
100
AcDbCircle
 10
0.0
 20
0.0
 30
0.0
 40
9.0
  0
LINE
  5
88
330
6C
100
AcDbEntity
  8
Predefinito
 62
     9
420
 12632256
100
AcDbLine
 10
0.0
 20
9.0
 30
405.0
 11
0.0
 21
9.0
 31
-405.0000000000005
  0
LINE
  5
89
330
6C
100
AcDbEntity
  8
Predefinito
 62
     9
420
 12632256
100
AcDbLine
 10
9.0
 20
0.0
 30
405.0
 11
9.0
 21
0.0
 31
-405.0000000000002
  0
LINE
  5
8A
330
6C
100
AcDbEntity
  8
Predefinito
 62
     9
420
 12632256
100
AcDbLine
 10
0.0
 20
-9.0
 30
405.0
 11
0.0
 21
-9.0
 31
380.4999999999998
  0
LINE
  5
8B
330
6C
100
AcDbEntity
  8
Predefinito
 62
     9
420
 12632256
100
AcDbLine
 10
0.0
 20
-9.0
 30
375.5000002149431
 11
0.0
 21
-9.0
 31
-375.4999999999997
  0
LINE
  5
8C
330
6C
100
AcDbEntity
  8
Predefinito
 62
     9
420
 12632256
100
AcDbLine
 10
0.0
 20
-9.0
 30
-380.4999997850567
 11
0.0
 21
-9.0
 31
-405.0000000000002
  0
LINE
  5
8D
330
6C
100
AcDbEntity
  8
Predefinito
 62
     9
420
 12632256
100
AcDbLine
 10
9.0
 20
0.0
 30
405.0
 11
8.5
 21
0.0
 31
405.0
  0
LINE
  5
8E
330
6C
100
AcDbEntity
  8
Predefinito
 62
     9
420
 12632256
100
AcDbLine
 10
-8.500000000000002
 20
0.0
 30
405.0
 11
-9.0
 21
0.0
 31
405.0
  0
LINE
  5
8F
330
6C
100
AcDbEntity
  8
Predefinito
 62
     9
420
 12632256
100
AcDbLine
 10
0.0
 20
-9.0
 30
405.0
 11
0.0
 21
-8.5
 31
405.0
  0
LINE
  5
90
330
6C
100
AcDbEntity
  8
Predefinito
 62
     9
420
 12632256
100
AcDbLine
 10
0.0
 20
8.500000000000002
 30
405.0
 11
0.0
 21
9.0
 31
405.0
  0
LINE
  5
91
330
6C
100
AcDbEntity
  8
Predefinito
 62
     9
420
 12632256
100
AcDbLine
 10
9.0
 20
0.0
 30
-405.0
 11
8.5
 21
0.0
 31
-405.0
  0
LINE
  5
92
330
6C
100
AcDbEntity
  8
Predefinito
 62
     9
420
 12632256
100
AcDbLine
 10
-8.500000000000002
 20
0.0
 30
-405.0
 11
-9.0
 21
0.0
 31
-405.0
  0
LINE
  5
93
330
6C
100
AcDbEntity
  8
Predefinito
 62
     9
420
 12632256
100
AcDbLine
 10
0.0
 20
-9.0
 30
-405.0
 11
0.0
 21
-8.5
 31
-405.0
  0
LINE
  5
94
330
6C
100
AcDbEntity
  8
Predefinito
 62
     9
420
 12632256
100
AcDbLine
 10
0.0
 20
8.500000000000002
 30
-405.0
 11
0.0
 21
9.0
 31
-405.0
  0
CIRCLE
  5
95
330
6C
100
AcDbEntity
  8
Predefinito
 62
     9
420
 12632256
100
AcDbCircle
 10
-0.0000000000000034
 20
-378.0
 30
-8.557313761741199
 40
2.5
210
0.0
220
1.0
230
0.0
  0
LINE
  5
96
330
6C
100
AcDbEntity
  8
Predefinito
 62
     9
420
 12632256
100
AcDbLine
 10
2.5
 20
-8.645808617050651
 30
-378.0
 11
2.5
 21
-8.124038857635917
 31
-378.0
  0
LINE
  5
97
330
6C
100
AcDbEntity
  8
Predefinito
 62
     9
420
 12632256
100
AcDbLine
 10
0.0000000000000034
 20
-8.99999996097517
 30
-380.5
 11
0.0000000000000034
 21
-8.499999938486987
 31
-380.5
  0
LINE
  5
98
330
6C
100
AcDbEntity
  8
Predefinito
 62
     9
420
 12632256
100
AcDbLine
 10
-2.5
 20
-8.645808179941625
 30
-378.0
 11
-2.5
 21
-8.124038363748667
 31
-378.0
  0
CIRCLE
  5
99
330
6C
100
AcDbEntity
  8
Predefinito
 62
     9
420
 12632256
100
AcDbCircle
 10
-0.0000000000000033
 20
378.0
 30
-8.557313761741199
 40
2.5
210
0.0
220
1.0
230
0.0
  0
LINE
  5
9A
330
6C
100
AcDbEntity
  8
Predefinito
 62
     9
420
 12632256
100
AcDbLine
 10
2.5
 20
-8.645808179941621
 30
378.0
 11
2.5
 21
-8.124038363748667
 31
378.0
  0
LINE
  5
9B
330
6C
100
AcDbEntity
  8
Predefinito
 62
     9
420
 12632256
100
AcDbLine
 10
0.0000000000000033
 20
-8.99999996097517
 30
375.5
 11
0.0000000000000033
 21
-8.499999938486985
 31
375.5
  0
LINE
  5
9C
330
6C
100
AcDbEntity
  8
Predefinito
 62
     9
420
 12632256
100
AcDbLine
 10
-2.5
 20
-8.645808617050658
 30
378.0
 11
-2.5
 21
-8.124038857635915
 31
378.0
  0
ENDBLK
  5
9E
330
6C
100
AcDbEntity
  8
0
100
AcDbBlockEnd
  0
BLOCK
  5
E3
330
A0
100
AcDbEntity
  8
0
100
AcDbBlockBegin
  2
10RA07160YY
 70
     0
 10
0.0
 20
0.0
 30
0.0
  3
10RA07160YY
  1
10RA07160YY
  0
ARC
  5
A1
330
A0
100
AcDbEntity
  8
Predefinito
100
AcDbCircle
 10
0.0000000000000035
 20
-0.0000000000000004
 30
38.0
 40
8.0
100
AcDbArc
 50
270.0
 51
90.0
  0
SPLINE
  5
A2
330
A0
100
AcDbEntity
  8
Predefinito
100
AcDbSpline
 70
     0
 71
     3
 72
    26
 73
    22
 74
     0
 42
0.000000001
 43
0.0000000001
 40
0.0106008637266179
 40
0.0106008637266179
 40
0.0106008637266179
 40
0.0106008637266179
 40
0.0108380051751267
 40
0.0108380051751267
 40
0.0118254360975803
 40
0.0118254360975803
 40
0.0136733323862724
 40
0.0136733323862724
 40
0.0145916599615987
 40
0.0145916599615987
 40
0.0155099875369251
 40
0.0155099875369251
 40
0.0164516841870254
 40
0.0164516841870254
 40
0.0173933808371256
 40
0.0173933808371256
 40
0.0182760389130327
 40
0.0182760389130327
 40
0.0191586969889399
 40
0.0191586969889399
 40
0.0209262419024862
 40
0.0209262419024862
 40
0.0209262419024862
 40
0.0209262419024862
 10
2.987311823578659
 20
-0.8119692075018268
 30
42.90430525968335
 10
3.001474159609258
 20
-0.7404908345857686
 30
42.90928322194996
 10
3.013793991680526
 20
-0.6684972015229251
 30
42.91360141481542
 10
3.068695366832518
 20
-0.2929372804535683
 30
42.93232923892516
 10
3.083971609854107
 20
0.0259897720744657
 30
42.93540972829013
 10
2.994471656910652
 20
1.022085044065151
 30
42.90344472233836
 10
2.793920622707206
 20
1.594573062592742
 30
42.8332547841427
 10
2.346995201276772
 20
2.328580793927187
 30
42.70554451087254
 10
2.173388862717246
 20
2.551705739114884
 30
42.65984932771504
 10
1.763648009695706
 20
2.955573580420935
 30
42.569567293475
 10
1.530409997619887
 20
3.136012885999873
 30
42.52445239714352
 10
0.9595071103068729
 20
3.437510002949436
 30
42.44547101329886
 10
0.6219566807250168
 20
3.548618654831791
 30
42.41487884758168
 10
-0.0933147468181899
 20
3.621862196788938
 30
42.39447605474538
 10
-0.4872372435088465
 20
3.579394166330435
 30
42.40606170089227
 10
-1.164728844277989
 20
3.351143081537592
 30
42.46878089406882
 10
-1.432623763541242
 20
3.195207752034278
 30
42.51063367514107
 10
-1.907070255150609
 20
2.832226471485602
 30
42.59825405052769
 10
-2.106475088360253
 20
2.626454202739573
 30
42.64475519868357
 10
-2.623775685521725
 20
1.950362899652738
 30
42.77914943026693
 10
-2.865873409867257
 20
1.424767833071509
 30
42.8632055104719
 10
-2.989645830625059
 20
0.8002000000000232
 30
42.90511676592251
  0
LINE
  5
A3
330
A0
100
AcDbEntity
  8
Predefinito
100
AcDbLine
 10
0.0000000000000035
 20
-3.599018669569014
 30
42.40098133043099
 11
0.0000000000000034
 21
-8.0
 31
38.00000000000001
  0
SPLINE
  5
A4
330
A0
100
AcDbEntity
  8
Predefinito
100
AcDbSpline
 70
     0
 71
     3
 72
    16
 73
    12
 74
     0
 42
0.000000001
 43
0.0000000001
 40
0.0060461577803642
 40
0.0060461577803642
 40
0.0060461577803642
 40
0.0060461577803642
 40
0.0070039856052908
 40
0.0070039856052908
 40
0.0079618134302173
 40
0.0079618134302173
 40
0.0089061938414452
 40
0.0089061938414452
 40
0.0098505742526731
 40
0.0098505742526731
 40
0.0106008637266179
 40
0.0106008637266179
 40
0.0106008637266179
 40
0.0106008637266179
 10
0.0000000000000035
 20
-3.599018669569014
 30
42.40098133043099
 10
0.3937089430559965
 20
-3.59959872986243
 30
42.40034493370007
 10
0.7324475944308261
 20
-3.515435018190818
 30
42.42450305604192
 10
1.349342564093422
 20
-3.251345263821989
 30
42.49545002753309
 10
1.603543724091897
 20
-3.080443120478095
 30
42.53927874400452
 10
2.045651402936095
 20
-2.694722362801134
 30
42.62881819079844
 10
2.230526304786759
 20
-2.48158430188518
 30
42.67475532360309
 10
2.549261625898915
 20
-2.01553532306036
 30
42.76196840834752
 10
2.683542992630005
 20
-1.762279562758615
 30
42.8032442448966
 10
2.879189230814092
 20
-1.25910424625563
 30
42.86628573174793
 10
2.942472282380863
 20
-1.03811563866149
 30
42.88859792553652
 10
2.987311823578659
 20
-0.8119692075018268
 30
42.90430525968335
  0
ARC
  5
A5
330
A0
100
AcDbEntity
  8
Predefinito
100
AcDbCircle
 10
0.0
 20
0.0
 30
10.5
 40
9.1
100
AcDbArc
 50
0.0
 51
180.0
  0
ARC
  5
A6
330
A0
100
AcDbEntity
  8
Predefinito
100
AcDbCircle
 10
0.0
 20
0.0
 30
10.5
 40
9.1
100
AcDbArc
 50
180.0
 51
0.0
  0
SPLINE
  5
A7
330
A0
100
AcDbEntity
  8
Predefinito
100
AcDbSpline
 70
     0
 71
     3
 72
    46
 73
    42
 74
     0
 42
0.000000001
 43
0.0000000001
 40
51.76404591368127
 40
51.76404591368127
 40
51.76404591368127
 40
51.76404591368127
 40
56.07746658681746
 40
56.07746658681746
 40
60.39087672513276
 40
60.39087672513276
 40
62.54769499361992
 40
62.54769499361992
 40
64.70451326210707
 40
64.70451326210707
 40
65.78306704635791
 40
65.78306704635791
 40
66.86162083060877
 40
66.86162083060877
 40
67.94017461485964
 40
67.94017461485964
 40
68.47945150698506
 40
68.47945150698506
 40
68.74908995304776
 40
68.74908995304776
 40
69.01872839911047
 40
69.01872839911047
 40
69.28836079299039
 40
69.28836079299039
 40
69.5579931868703
 40
69.5579931868703
 40
70.09725797463012
 40
70.09725797463012
 40
71.17578755014975
 40
71.17578755014975
 40
72.25431712566939
 40
72.25431712566939
 40
73.33284670118903
 40
73.33284670118903
 40
75.48970743013211
 40
75.48970743013211
 40
77.64656815907519
 40
77.64656815907519
 40
81.95997310787764
 40
81.95997310787764
 40
86.27340985613544
 40
86.27340985613544
 40
86.27340985613544
 40
86.27340985613544
 10
-9.1
 20
0.0
 30
51.5
 10
-9.1
 20
0.7724191939266566
 30
50.72758080607334
 10
-9.003628372501431
 20
1.54366980741317
 30
49.95515254846052
 10
-8.596935204736292
 20
3.088841580982608
 30
48.41097684689789
 10
-8.28915097246842
 20
3.8603828841568
 30
47.63915926426429
 10
-7.605197176648493
 20
5.017134832908765
 30
46.48292904662767
 10
-7.340339261303867
 20
5.401658173214245
 30
46.09774684743509
 10
-6.706393400052472
 20
6.171124618335291
 30
45.32847551797464
 10
-6.339388744001928
 20
6.555269273578888
 30
44.94418385034221
 10
-5.663376781842828
 20
7.129062917800306
 30
44.36973642977946
 10
-5.415590556158989
 20
7.320931556970193
 30
44.17857342328787
 10
-4.8565378929987
 20
7.703161664386136
 30
43.7971013787963
 10
-4.547315552678513
 20
7.89311135433464
 30
43.60688481489199
 10
-3.816466607452781
 20
8.271267630886827
 30
43.22873617568687
 10
-3.405679739897188
 20
8.45899110706029
 30
43.04049416375182
 10
-2.571135584881569
 20
8.734131786512814
 30
42.76579253820169
 10
-2.263314597487801
 20
8.824161098824796
 30
42.67509683163028
 10
-1.642959110709673
 20
8.952948585624718
 30
42.54716369794097
 10
-1.409553627993284
 20
8.994977638181705
 30
42.50508170836503
 10
-0.8259109725010206
 20
9.06721209672964
 30
42.43266321628602
 10
-0.4536122247456948
 20
9.099999999999998
 30
42.39999999999999
 10
0.4536020431704993
 20
9.099999999999998
 30
42.39999999999999
 10
0.8258951427644865
 20
9.067213411194617
 30
42.43266191105223
 10
1.409530157007412
 20
8.994981187722194
 30
42.50507813720206
 10
1.642933217904263
 20
8.952953286832503
 30
42.54715902657894
 10
2.263282837241205
 20
8.824169040620324
 30
42.67508894520134
 10
2.571100550176059
 20
8.734142000064434
 30
42.7657823875141
 10
3.40563741773012
 20
8.4590077340417
 30
43.04047747018059
 10
3.816420484735063
 20
8.271288674756285
 30
43.22871505151628
 10
4.547263248875482
 20
7.893141237991589
 30
43.60685501255386
 10
4.85648340962969
 20
7.703195831567935
 30
43.79706718690763
 10
5.415532104468803
 20
7.32097460403748
 30
44.17853055404498
 10
5.663317090759968
 20
7.129110190528062
 30
44.36968920877852
 10
6.339345014401037
 20
6.555313174115247
 30
44.94413968866995
 10
6.706360497606357
 20
6.17116130630795
 30
45.32843888143346
 10
7.340324217268642
 20
5.401679681146127
 30
46.09772530283181
 10
7.605188486993469
 20
5.017148811475504
 30
46.48291507461459
 10
8.289147491688796
 20
3.860390206987056
 30
47.63915194423916
 10
8.596932166717517
 20
3.088849845684384
 30
48.41096859406401
 10
9.003627575140275
 20
1.543676114667007
 30
49.9551462387324
 10
9.099999954046066
 20
0.7724226244766638
 30
50.72757737496179
 10
9.100000000000001
 20
0.0000000000000011
 30
51.5
  0
LINE
  5
A8
330
A0
100
AcDbEntity
  8
Predefinito
100
AcDbLine
 10
-9.1
 20
0.0
 30
51.5
 11
-9.1
 21
0.0000000000000004
 31
10.49999999999999
  0
ARC
  5
A9
330
A0
100
AcDbEntity
  8
Predefinito
100
AcDbCircle
 10
0.0
 20
0.0
 30
10.5
 40
12.4
100
AcDbArc
 50
0.000000000000007
 51
180.0
  0
ARC
  5
AA
330
A0
100
AcDbEntity
  8
Predefinito
100
AcDbCircle
 10
0.0
 20
0.0
 30
10.5
 40
12.4
100
AcDbArc
 50
180.0
 51
0.0
  0
SPLINE
  5
AB
330
A0
100
AcDbEntity
  8
Predefinito
100
AcDbSpline
 70
     0
 71
     3
 72
    34
 73
    30
 74
     0
 42
0.000000001
 43
0.0000000001
 40
-0.0101456047016785
 40
-0.0101456047016785
 40
-0.0101456047016785
 40
-0.0101456047016785
 40
-0.0101059870703451
 40
-0.0101059870703451
 40
-0.0100663694390117
 40
-0.0100663694390117
 40
-0.0099871341763449
 40
-0.0099871341763449
 40
-0.0098286636510113
 40
-0.0098286636510113
 40
-0.0095117226003442
 40
-0.0095117226003442
 40
-0.0088777376793677
 40
-0.0088777376793677
 40
-0.0076096639272127
 40
-0.0076096639272127
 40
-0.0063416291038045
 40
-0.0063416291038045
 40
-0.0057076166547528
 40
-0.0057076166547528
 40
-0.005390209502796
 40
-0.005390209502796
 40
-0.0052315059268176
 40
-0.0052315059268176
 40
-0.0051521541388284
 40
-0.0051521541388284
 40
-0.0051124782448338
 40
-0.0051124782448338
 40
-0.0050728023508393
 40
-0.0050728023508393
 40
-0.0050728023508393
 40
-0.0050728023508393
 10
0.0000000000000014
 20
-12.39999999999999
 30
6.871000000000001
 10
0.1131819835004092
 20
-12.39999999999996
 30
6.870982808524815
 10
0.1757064770055302
 20
-12.39886108761534
 30
6.861900070762471
 10
0.2782321579138303
 20
-12.39698419142709
 30
6.84715256209668
 10
0.3160043547826917
 20
-12.39602421855164
 30
6.839170784174682
 10
0.4229972882835963
 20
-12.39298875413732
 30
6.815044563021474
 10
0.476126639528886
 20
-12.39095048812886
 30
6.798498280207223
 10
0.6212085886571926
 20
-12.38480876501565
 30
6.748612181408396
 10
0.6938842160242766
 20
-12.38073876894837
 30
6.714909684522462
 10
0.8866387527773946
 20
-12.36893270933972
 30
6.613730998036782
 10
0.9789554833433137
 20
-12.36155544025844
 30
6.545784800868423
 10
1.216905262901866
 20
-12.34117637302328
 30
6.341820142302091
 10
1.320083657531604
 20
-12.32979373178492
 30
6.205444268528089
 10
1.555526224965073
 20
-12.30307532713675
 30
5.796274553337059
 10
1.621245851083415
 20
-12.29357785840005
 30
5.523089066022271
 10
1.621121666591899
 20
-12.29360238991538
 30
4.976661573995328
 10
1.555222157170254
 20
-12.30312884943317
 30
4.703484595671366
 10
1.31992969844335
 20
-12.32983327387685
 30
4.294315997289233
 10
1.216823104064302
 20
-12.3412067504933
 30
4.157935485164094
 10
0.9790496047761781
 20
-12.36157143513173
 30
3.953862589196642
 10
0.8866776213398991
 20
-12.36895476366796
 30
3.885815007658096
 10
0.6935577037236609
 20
-12.38077632802577
 30
3.784489920790924
 10
0.6207111699088967
 20
-12.38485450211584
 30
3.750738266719968
 10
0.474916701607614
 20
-12.39101131526249
 30
3.70078830822456
 10
0.4215220481291366
 20
-12.39305528129765
 30
3.684222469564051
 10
0.3134462878936813
 20
-12.39609932571851
 30
3.660084229930311
 10
0.2754198344676466
 20
-12.39705960588044
 30
3.652106501003011
 10
0.1707113560829682
 20
-12.39894047404306
 30
3.637417977826854
 10
0.1259427347400262
 20
-12.40000622793624
 30
3.628924708219759
 10
-0.0002445815186751
 20
-12.40000000553993
 30
3.629000046129025
  0
SPLINE
  5
AC
330
A0
100
AcDbEntity
  8
Predefinito
100
AcDbSpline
 70
     0
 71
     3
 72
    34
 73
    30
 74
     0
 42
0.000000001
 43
0.0000000001
 40
-0.0050728023508393
 40
-0.0050728023508393
 40
-0.0050728023508393
 40
-0.0050728023508393
 40
-0.0050331285877089
 40
-0.0050331285877089
 40
-0.0049934548245785
 40
-0.0049934548245785
 40
-0.0049141072983177
 40
-0.0049141072983177
 40
-0.0047554122457962
 40
-0.0047554122457962
 40
-0.0044380221407532
 40
-0.0044380221407532
 40
-0.0038040339665544
 40
-0.0038040339665544
 40
-0.002535954374097
 40
-0.002535954374097
 40
-0.0012679129433758
 40
-0.0012679129433758
 40
-0.0006338976391484
 40
-0.0006338976391484
 40
-0.0003169488195742
 40
-0.0003169488195742
 40
-0.0001584744097871
 40
-0.0001584744097871
 40
-0.0000792372048936
 40
-0.0000792372048936
 40
-0.0000396186024468
 40
-0.0000396186024468
 40
0.0
 40
0.0
 40
0.0
 40
0.0
 10
-0.0002445815186751
 20
-12.40000000553993
 30
3.629000046129025
 10
-0.1263043942536474
 20
-12.39999378943092
 30
3.629075307914564
 10
-0.1704769930038129
 20
-12.39893305755903
 30
3.637550950040612
 10
-0.2749175399581432
 20
-12.39705401289359
 30
3.652258760235433
 10
-0.3128713008106004
 20
-12.39609534393478
 30
3.660233444581344
 10
-0.4207984008717899
 20
-12.39305476615207
 30
3.684376156782654
 10
-0.4741786187207336
 20
-12.39101205634891
 30
3.700938768109841
 10
-0.6199477883200136
 20
-12.38485717552142
 30
3.750885458422011
 10
-0.6927984154198499
 20
-12.38077988441433
 30
3.784633548749325
 10
-0.8860303859619404
 20
-12.36895335138274
 30
3.885949017388507
 10
-0.9784407341701316
 20
-12.36156760280563
 30
3.953989208030577
 10
-1.216370362737871
 20
-12.34119181117493
 30
4.158043809223657
 10
-1.319462860016059
 20
-12.32982068002276
 30
4.294415297659455
 10
-1.554792183243962
 20
-12.30312076438558
 30
4.703571750152157
 10
-1.62067152836955
 20
-12.29360521329729
 30
4.976747237551551
 10
-1.620960778940849
 20
-12.29357522314541
 30
5.523156359476622
 10
-1.555301891794457
 20
-12.30307329450855
 30
5.796324490227565
 10
-1.319904757509761
 20
-12.32979688460355
 30
6.205478232016634
 10
-1.216719204644663
 20
-12.34118230712572
 30
6.341854203417112
 10
-0.9788872174153214
 20
-12.36155485551297
 30
6.545819853851855
 10
-0.8866160413115578
 20
-12.36892943377303
 30
6.613765464704606
 10
-0.6939895548267478
 20
-12.38073070253335
 30
6.714943623718824
 10
-0.621350869693343
 20
-12.38479995861611
 30
6.748646011047626
 10
-0.476333927616132
 20
-12.39094182090507
 30
6.798531982733807
 10
-0.4232253597855644
 20
-12.39298052255961
 30
6.815078922808201
 10
-0.3162412558568294
 20
-12.39601799032074
 30
6.839204028834569
 10
-0.2784619598155995
 20
-12.39697896623168
 30
6.847186738963225
 10
-0.1759127704844466
 20
-12.39885818891354
 30
6.861930347793426
 10
-0.1131931487478225
 20
-12.40000000000002
 30
6.871017193171101
 10
0.0000000000000014
 20
-12.39999999999999
 30
6.871000000000001
  0
ARC
  5
AD
330
A0
100
AcDbEntity
  8
Predefinito
100
AcDbCircle
 10
0.0
 20
0.0
 30
0.0
 40
12.4
100
AcDbArc
 50
0.000000000000007
 51
180.0
  0
ARC
  5
AE
330
A0
100
AcDbEntity
  8
Predefinito
100
AcDbCircle
 10
0.0
 20
0.0
 30
0.0
 40
12.4
100
AcDbArc
 50
180.0
 51
0.0
  0
LINE
  5
AF
330
A0
100
AcDbEntity
  8
Predefinito
100
AcDbLine
 10
-12.4
 20
-0.0000000000000006
 30
10.5
 11
-12.4
 21
-0.0000000000000006
 31
0.0
  0
ARC
  5
B0
330
A0
100
AcDbEntity
  8
Predefinito
100
AcDbCircle
 10
0.0000000000000031
 20
0.0
 30
0.5000000000000001
 40
8.0
100
AcDbArc
 50
0.0
 51
180.0
  0
ARC
  5
B1
330
A0
100
AcDbEntity
  8
Predefinito
100
AcDbCircle
 10
0.0000000000000036
 20
0.0
 30
0.5000000000000002
 40
8.0
100
AcDbArc
 50
180.0
 51
0.0
  0
ARC
  5
B2
330
A0
100
AcDbEntity
  8
Predefinito
100
AcDbCircle
 10
0.0000000000000031
 20
-0.0000000000000002
 30
38.0
 40
8.0
100
AcDbArc
 50
90.0
 51
180.0
  0
ARC
  5
B3
330
A0
100
AcDbEntity
  8
Predefinito
100
AcDbCircle
 10
0.0000000000000036
 20
0.0
 30
38.0
 40
8.0
100
AcDbArc
 50
180.0
 51
270.0
  0
LINE
  5
B4
330
A0
100
AcDbEntity
  8
Predefinito
100
AcDbLine
 10
-7.999999999999996
 20
0.0
 30
38.0
 11
-7.999999999999997
 21
0.0
 31
0.5000000000000007
  0
ARC
  5
B5
330
A0
100
AcDbEntity
  8
Predefinito
100
AcDbCircle
 10
0.0000000000000027
 20
0.0
 30
0.0000000000000003
 40
8.5
100
AcDbArc
 50
0.0
 51
180.0
  0
ARC
  5
B6
330
A0
100
AcDbEntity
  8
Predefinito
100
AcDbCircle
 10
0.0000000000000027
 20
0.0
 30
0.0000000000000003
 40
8.5
100
AcDbArc
 50
180.0
 51
0.0
  0
LINE
  5
B7
330
A0
100
AcDbEntity
  8
Predefinito
100
AcDbLine
 10
-7.999999999999997
 20
0.0
 30
0.5000000000000007
 11
-8.499999999999998
 21
-0.0000000000000004
 31
0.0000000000000005
  0
SPLINE
  5
B8
330
A0
100
AcDbEntity
  8
Predefinito
100
AcDbSpline
 70
     0
 71
     3
 72
    14
 73
    10
 74
     0
 42
0.000000001
 43
0.0000000001
 40
0.0
 40
0.0
 40
0.0
 40
0.0
 40
0.001270320143276
 40
0.001270320143276
 40
0.0025406313918822
 40
0.0025406313918822
 40
0.0038109043162004
 40
0.0038109043162004
 40
0.0050811622950166
 40
0.0050811622950166
 40
0.0050811622950166
 40
0.0050811622950166
 10
0.0000000000000025
 20
-8.000000000000002
 30
6.871000000000001
 10
0.4314586418999631
 20
-8.000023499850009
 30
6.871000000000001
 10
0.8486536510088781
 20
-7.958503751636183
 30
6.69379821454539
 10
1.443851129317044
 20
-7.875485388826332
 30
6.098654555592982
 10
1.621094583498673
 20
-7.833986890120064
 30
5.681453368754091
 10
1.621168877532823
 20
-7.834115863007298
 30
4.81857537477139
 10
1.444011846372592
 20
-7.875601673653679
 30
4.401374445804289
 10
0.8488948449304213
 20
-7.958541908365257
 30
3.806202208872337
 10
0.4317080507904878
 20
-7.99999633279768
 30
3.62900005352637
 10
0.0002634634639192
 20
-7.999999996098116
 30
3.62900005352637
  0
SPLINE
  5
B9
330
A0
100
AcDbEntity
  8
Predefinito
100
AcDbSpline
 70
     0
 71
     3
 72
    14
 73
    10
 74
     0
 42
0.000000001
 43
0.0000000001
 40
0.0050811622950166
 40
0.0050811622950166
 40
0.0050811622950166
 40
0.0050811622950166
 40
0.0063510768121392
 40
0.0063510768121392
 40
0.0076209972694282
 40
0.0076209972694282
 40
0.0088909960498334
 40
0.0088909960498334
 40
0.0101610068254104
 40
0.0101610068254104
 40
0.0101610068254104
 40
0.0101610068254104
 10
0.0002634634639192
 20
-7.999999996098116
 30
3.62900005352637
 10
-0.4311876023604887
 20
-8.000003659453284
 30
3.62900005352637
 10
-0.8483930328363368
 20
-7.958516187202323
 30
3.806201862493791
 10
-1.443599166350779
 20
-7.875539498227673
 30
4.401359818977062
 10
-1.62083293084442
 20
-7.83405027600908
 30
4.818577105175053
 10
-1.620903607701052
 20
-7.834052187970201
 30
5.681447471018869
 10
-1.443735770557753
 20
-7.875527238920129
 30
6.098642479715968
 10
-0.8486212821696983
 20
-7.958489395438594
 30
6.693803686258354
 10
-0.4314409496368745
 20
-7.999976501113623
 30
6.871000000000001
 10
0.0000000000000025
 20
-8.000000000000002
 30
6.871000000000001
  0
LINE
  5
BA
330
A0
100
AcDbEntity
  8
Predefinito
100
AcDbLine
 10
0.0002634634639192
 20
-7.999999996098116
 30
3.62900005352637
 11
-0.0002445815186751
 21
-12.40000000553993
 31
3.629000046129025
  0
SPLINE
  5
BB
330
A0
100
AcDbEntity
  8
Predefinito
100
AcDbSpline
 70
     0
 71
     3
 72
    46
 73
    42
 74
     0
 42
0.000000001
 43
0.0000000001
 40
51.76404591368127
 40
51.76404591368127
 40
51.76404591368127
 40
51.76404591368127
 40
56.07746645827453
 40
56.07746645827453
 40
60.39087646804721
 40
60.39087646804721
 40
62.54769467225969
 40
62.54769467225969
 40
64.70451287647217
 40
64.70451287647217
 40
65.78306662858137
 40
65.78306662858137
 40
66.86162038069057
 40
66.86162038069057
 40
67.94017413279977
 40
67.94017413279977
 40
68.47945100885437
 40
68.47945100885437
 40
68.74908944688167
 40
68.74908944688167
 40
69.01872788490897
 40
69.01872788490897
 40
69.28836027075363
 40
69.28836027075363
 40
69.5579926565983
 40
69.5579926565983
 40
70.09725742828763
 40
70.09725742828763
 40
71.1757869716663
 40
71.1757869716663
 40
72.25431651504496
 40
72.25431651504496
 40
73.33284605842364
 40
73.33284605842364
 40
75.4897067230907
 40
75.4897067230907
 40
77.64656738775776
 40
77.64656738775776
 40
81.95997220801756
 40
81.95997220801756
 40
86.27340985613544
 40
86.27340985613544
 40
86.27340985613544
 40
86.27340985613544
 10
9.100000000000001
 20
0.0000000000000011
 30
51.5
 10
9.100000000000001
 20
-0.7724191939266565
 30
50.72758080607334
 10
9.003628372501433
 20
-1.544847451539495
 30
49.95633019258684
 10
8.596935204736297
 20
-3.089023153102124
 30
48.4111584190174
 10
8.289150972468423
 20
-3.86084073573571
 30
47.63961711584319
 10
7.60519717664849
 20
-5.017070953372326
 30
46.48286516709123
 10
7.340339261303866
 20
-5.402253152564908
 30
46.09834182678575
 10
6.706393400052484
 20
-6.171524482025353
 30
45.32887538166472
 10
6.339388744001947
 20
-6.55581614965779
 30
44.94473072642113
 10
5.663376781842834
 20
-7.130263570220534
 30
44.3709370821997
 10
5.415590556158992
 20
-7.321426576712127
 30
44.17906844302981
 10
4.856537892998698
 20
-7.702898621203702
 30
43.79683833561386
 10
4.547315552678513
 20
-7.893115185108011
 30
43.60688864566536
 10
3.816466607452782
 20
-8.27126382431314
 30
43.22873236911317
 10
3.405679739897225
 20
-8.45950583624818
 30
43.04100889293972
 10
2.571135584881586
 20
-8.734207461798308
 30
42.76586821348719
 10
2.263314597487772
 20
-8.824903168369731
 30
42.6758389011752
 10
1.642959110709564
 20
-8.952836302059042
 30
42.54705141437526
 10
1.409553627993319
 20
-8.99491829163499
 30
42.5050223618183
 10
0.8259109725010104
 20
-9.067336783713982
 30
42.43278790327036
 10
0.4536122247457248
 20
-9.100000000000023
 30
42.4
 10
-0.4536020431704919
 20
-9.100000000000023
 30
42.4
 10
-0.8258951427643809
 20
-9.067338088947782
 30
42.43278658880537
 10
-1.409530157007456
 20
-8.994921862797966
 30
42.50501881227781
 10
-1.642933217904144
 20
-8.95284097342107
 30
42.54704671316747
 10
-2.263282837241133
 20
-8.82491105479867
 30
42.67583095937965
 10
-2.571100550176018
 20
-8.73421761248592
 30
42.76585799993556
 10
-3.405637417730143
 20
-8.459522529819427
 30
43.04099226595831
 10
-3.816420484735049
 20
-8.271284948483743
 30
43.22871132524371
 10
-4.547263248875471
 20
-7.893144987446156
 30
43.6068587620084
 10
-4.856483409629668
 20
-7.702932813092383
 30
43.79680416843205
 10
-5.415532104468792
 20
-7.321469445955035
 30
44.17902539596251
 10
-5.663317090759963
 20
-7.130310791221491
 30
44.37088980947193
 10
-6.339345014401047
 20
-6.555860311330057
 30
44.94468682588476
 10
-6.706360497606371
 20
-6.171561118566538
 30
45.32883869369206
 10
-7.340324217268645
 20
-5.402274697168184
 30
46.09832031885387
 10
-7.605188486993463
 20
-5.01708492538542
 30
46.48285118852449
 10
-8.289147491688803
 20
-3.86084805576085
 30
47.63960979301296
 10
-8.596932166717517
 20
-3.089031405935999
 30
48.41115015431563
 10
-9.003627623622334
 20
-1.544853577186567
 30
49.95632406953279
 10
-9.1
 20
-0.7724222567142545
 30
50.72757774328574
 10
-9.1
 20
0.0
 30
51.5
  0
SPLINE
  5
BC
330
A0
100
AcDbEntity
  8
Predefinito
100
AcDbSpline
 70
     0
 71
     3
 72
    20
 73
    16
 74
     0
 42
0.000000001
 43
0.0000000001
 40
-0.0056153386847039
 40
-0.0056153386847039
 40
-0.0056153386847039
 40
-0.0056153386847039
 40
-0.005485420229616
 40
-0.005485420229616
 40
-0.0053373565017763
 40
-0.0053373565017763
 40
-0.0051892927739366
 40
-0.0051892927739366
 40
-0.0045970378625778
 40
-0.0045970378625778
 40
-0.0034479545298151
 40
-0.0034479545298151
 40
-0.0022986421589431
 40
-0.0022986421589431
 40
0.0
 40
0.0
 40
0.0
 40
0.0
 10
0.0000000000000035
 20
-3.599018669569014
 30
42.40098133043099
 10
-0.2375639236098301
 20
-3.596802547130912
 30
42.40146823168629
 10
-0.473308459949462
 20
-3.559475034267103
 30
42.41215675642455
 10
-0.7565349457131105
 20
-3.493236828883624
 30
42.43101511568483
 10
-0.8629768018942798
 20
-3.455711622389085
 30
42.44125280856971
 10
-1.055545821696963
 20
-3.380437222505942
 30
42.46163831533136
 10
-1.137215090981084
 20
-3.342282450435923
 30
42.47174027279699
 10
-1.511564297493488
 20
-3.150942083034229
 30
42.52199075552286
 10
-1.707194407462237
 20
-2.995777419389117
 30
42.56050462322496
 10
-2.206990766824305
 20
-2.538816779588998
 30
42.66576397616086
 10
-2.418597773944081
 20
-2.235832161367455
 30
42.72606319804527
 10
-2.74825372866924
 20
-1.629380638222198
 30
42.82355435745265
 10
-2.861580979655765
 20
-1.325824621073317
 30
42.86154777009708
 10
-3.091350021781956
 20
-0.4150411848976581
 30
42.93979114389116
 10
-3.108434725202256
 20
0.1926395634033006
 30
42.94650505486717
 10
-2.989645830625059
 20
0.8002000000000232
 30
42.90511676592251
  0
CIRCLE
  5
BD
330
A0
100
AcDbEntity
  8
Predefinito
100
AcDbCircle
 10
0.0000000000000035
 20
0.0
 30
41.57000000000001
 40
4.429999999999999
  0
LINE
  5
BE
330
A0
100
AcDbEntity
  8
Predefinito
100
AcDbLine
 10
-3.068193988371198
 20
0.0
 30
42.9318060116288
 11
-7.999999999999996
 21
0.0
 31
38.0
  0
LINE
  5
BF
330
A0
100
AcDbEntity
  8
Predefinito
100
AcDbLine
 10
0.0000000000000035
 20
3.598940113718038
 30
42.40105988628197
 11
0.0000000000000035
 21
8.0
 31
38.0
  0
LINE
  5
C0
330
A0
100
AcDbEntity
  8
Predefinito
100
AcDbLine
 10
3.068222277582901
 20
0.0
 30
42.93177772241711
 11
8.000000000000004
 21
0.0
 31
38.0
  0
CIRCLE
  5
C1
330
A0
100
AcDbEntity
  8
Predefinito
100
AcDbCircle
 10
0.0
 20
0.0
 30
31.0
 40
9.1
  0
LINE
  5
C2
330
A0
100
AcDbEntity
  8
Predefinito
100
AcDbLine
 10
0.0
 20
9.1
 30
42.39999999999998
 11
0.0
 21
9.1
 31
10.5
  0
LINE
  5
C3
330
A0
100
AcDbEntity
  8
Predefinito
100
AcDbLine
 10
9.1
 20
0.0
 30
51.5
 11
9.1
 21
0.0
 31
10.5
  0
LINE
  5
C4
330
A0
100
AcDbEntity
  8
Predefinito
100
AcDbLine
 10
0.0
 20
-9.1
 30
42.39999999999998
 11
0.0
 21
-9.1
 31
10.49999999999998
  0
LINE
  5
C5
330
A0
100
AcDbEntity
  8
Predefinito
100
AcDbLine
 10
12.4
 20
0.0000000000000009
 30
0.0
 11
8.500000000000004
 21
0.0000000000000009
 31
0.0
  0
LINE
  5
C6
330
A0
100
AcDbEntity
  8
Predefinito
100
AcDbLine
 10
-8.499999999999996
 20
0.0000000000000009
 30
0.0
 11
-12.40000000000001
 21
0.0000000000000009
 31
0.0
  0
LINE
  5
C7
330
A0
100
AcDbEntity
  8
Predefinito
100
AcDbLine
 10
-0.0000000000000009
 20
-12.4
 30
0.0
 11
-0.0000000000000009
 21
-8.5
 31
0.0
  0
LINE
  5
C8
330
A0
100
AcDbEntity
  8
Predefinito
100
AcDbLine
 10
-0.0000000000000009
 20
8.499999999999998
 30
0.0
 11
-0.0000000000000009
 21
12.4
 31
0.0
  0
ARC
  5
C9
330
A0
100
AcDbEntity
  8
Predefinito
100
AcDbCircle
 10
0.0
 20
0.0
 30
5.25
 40
12.4
100
AcDbArc
 50
277.5115376691047
 51
180.0
  0
ARC
  5
CA
330
A0
100
AcDbEntity
  8
Predefinito
100
AcDbCircle
 10
0.0
 20
0.0
 30
5.25
 40
12.4
100
AcDbArc
 50
180.0
 51
262.4884657386911
  0
LINE
  5
CB
330
A0
100
AcDbEntity
  8
Predefinito
100
AcDbLine
 10
0.0
 20
12.4
 30
10.5
 11
0.0
 21
12.4
 31
0.0000000000000002
  0
LINE
  5
CC
330
A0
100
AcDbEntity
  8
Predefinito
100
AcDbLine
 10
12.4
 20
0.0
 30
10.5
 11
12.4
 21
0.0
 31
0.0000000000000002
  0
LINE
  5
CD
330
A0
100
AcDbEntity
  8
Predefinito
100
AcDbLine
 10
0.0
 20
-12.4
 30
10.5
 11
0.0
 21
-12.4
 31
6.871000000000002
  0
LINE
  5
CE
330
A0
100
AcDbEntity
  8
Predefinito
100
AcDbLine
 10
0.0
 20
-12.4
 30
3.628999822053133
 11
0.0
 21
-12.4
 31
0.0
  0
CIRCLE
  5
CF
330
A0
100
AcDbEntity
  8
Predefinito
100
AcDbCircle
 10
0.0000000000000033
 20
0.0
 30
19.25
 40
8.0
  0
LINE
  5
D0
330
A0
100
AcDbEntity
  8
Predefinito
100
AcDbLine
 10
0.0000000000000033
 20
8.0
 30
38.0
 11
0.0000000000000033
 21
8.0
 31
0.4999999999999982
  0
LINE
  5
D1
330
A0
100
AcDbEntity
  8
Predefinito
100
AcDbLine
 10
8.000000000000004
 20
0.0
 30
38.0
 11
8.000000000000004
 21
0.0
 31
0.4999999999999982
  0
LINE
  5
D2
330
A0
100
AcDbEntity
  8
Predefinito
100
AcDbLine
 10
0.0000000000000033
 20
-8.0
 30
38.0
 11
0.0000000000000033
 21
-8.0
 31
6.871
  0
LINE
  5
D3
330
A0
100
AcDbEntity
  8
Predefinito
100
AcDbLine
 10
0.0000000000000033
 20
-8.0
 30
3.628999942956289
 11
0.0000000000000033
 21
-8.0
 31
0.4999999999999982
  0
LINE
  5
D4
330
A0
100
AcDbEntity
  8
Predefinito
100
AcDbLine
 10
0.0000000000000033
 20
8.000000000000002
 30
0.5000000000000013
 11
0.0000000000000033
 21
8.500000000000002
 31
0.0000000000000001
  0
LINE
  5
D5
330
A0
100
AcDbEntity
  8
Predefinito
100
AcDbLine
 10
8.000000000000005
 20
0.0
 30
0.5000000000000001
 11
8.500000000000004
 21
0.0
 31
0.0000000000000012
  0
LINE
  5
D6
330
A0
100
AcDbEntity
  8
Predefinito
100
AcDbLine
 10
0.0000000000000033
 20
-8.000000000000002
 30
0.5000000000000001
 11
0.0000000000000033
 21
-8.5
 31
0.0000000000000012
  0
CIRCLE
  5
D7
330
A0
100
AcDbEntity
  8
Predefinito
100
AcDbCircle
 10
0.0
 20
5.25
 30
-10.10929278781895
 40
1.621
210
0.0
220
1.0
230
0.0
  0
LINE
  5
D8
330
A0
100
AcDbEntity
  8
Predefinito
100
AcDbLine
 10
1.621
 20
-7.834051386449883
 30
5.25
 11
1.621
 21
-12.29359018030445
 31
5.25
  0
LINE
  5
D9
330
A0
100
AcDbEntity
  8
Predefinito
100
AcDbLine
 10
0.0
 20
-8.000000000000004
 30
6.871
 11
0.0
 21
-12.39999999999998
 31
6.871
  0
LINE
  5
DA
330
A0
100
AcDbEntity
  8
Predefinito
100
AcDbLine
 10
-1.621
 20
-7.834051239700075
 30
5.25
 11
-1.621
 21
-12.29359022343939
 31
5.25
  0
LINE
  5
DB
330
A0
100
AcDbEntity
  8
Predefinito
100
AcDbLine
 10
12.4
 20
-0.0000000000000009
 30
10.5
 11
9.100000000000001
 21
-0.0000000000000009
 31
10.5
  0
LINE
  5
DC
330
A0
100
AcDbEntity
  8
Predefinito
100
AcDbLine
 10
-9.099999999999998
 20
-0.0000000000000009
 30
10.5
 11
-12.4
 21
-0.0000000000000009
 31
10.5
  0
LINE
  5
DD
330
A0
100
AcDbEntity
  8
Predefinito
100
AcDbLine
 10
0.0000000000000009
 20
-12.4
 30
10.5
 11
0.0000000000000009
 21
-9.1
 31
10.5
  0
LINE
  5
DE
330
A0
100
AcDbEntity
  8
Predefinito
100
AcDbLine
 10
0.0000000000000009
 20
9.100000000000001
 30
10.5
 11
0.0000000000000009
 21
12.4
 31
10.5
  0
ARC
  5
DF
330
A0
100
AcDbEntity
  8
Predefinito
100
AcDbCircle
 10
-0.0000000000000003
 20
51.5
 30
-0.0000000000000142
 40
9.100000000000001
210
0.0
220
1.0
230
0.0
100
AcDbArc
 50
180.0
 51
250.317304847268
  0
ARC
  5
E0
330
A0
100
AcDbEntity
  8
Predefinito
100
AcDbCircle
 10
-0.0000000000000003
 20
51.5
 30
-0.0000000000000142
 40
9.100000000000001
210
0.0
220
1.0
230
0.0
100
AcDbArc
 50
289.68901509496
 51
0.0
  0
LINE
  5
E1
330
A0
100
AcDbEntity
  8
Predefinito
100
AcDbLine
 10
0.0000000000000003
 20
-9.100000000000025
 30
42.4
 11
0.0000000000000003
 21
-3.598774123914952
 31
42.4
  0
LINE
  5
E2
330
A0
100
AcDbEntity
  8
Predefinito
100
AcDbLine
 10
0.0000000000000003
 20
3.598613448080371
 30
42.4
 11
0.0000000000000003
 21
9.100000000000023
 31
42.4
  0
ENDBLK
  5
E4
330
A0
100
AcDbEntity
  8
0
100
AcDbBlockEnd
  0
BLOCK
  5
120
330
E7
100
AcDbEntity
  8
0
100
AcDbBlockBegin
  2
10RA07260YY
 70
     0
 10
0.0
 20
0.0
 30
0.0
  3
10RA07260YY
  1
10RA07260YY
  0
ARC
  5
E8
330
E7
100
AcDbEntity
  8
Predefinito
100
AcDbCircle
 10
0.0000000000000004
 20
0.0
 30
17.0
 40
7.4
100
AcDbArc
 50
180.0
 51
0.0
  0
ARC
  5
E9
330
E7
100
AcDbEntity
  8
Predefinito
100
AcDbCircle
 10
-0.0000000000000004
 20
0.0
 30
17.0
 40
7.4
100
AcDbArc
 50
0.000000000000007
 51
180.0
  0
ARC
  5
EA
330
E7
100
AcDbEntity
  8
Predefinito
100
AcDbCircle
 10
0.0
 20
0.0
 30
0.0000000000000003
 40
7.4
100
AcDbArc
 50
0.0
 51
180.0
  0
ARC
  5
EB
330
E7
100
AcDbEntity
  8
Predefinito
100
AcDbCircle
 10
0.0
 20
0.0
 30
0.0000000000000003
 40
7.4
100
AcDbArc
 50
180.0
 51
0.0
  0
LINE
  5
EC
330
E7
100
AcDbEntity
  8
Predefinito
100
AcDbLine
 10
7.4
 20
-0.0000000000000004
 30
0.0000000000000003
 11
7.399999999999999
 21
0.0
 31
17.0
  0
ARC
  5
ED
330
E7
100
AcDbEntity
  8
Predefinito
100
AcDbCircle
 10
0.0
 20
0.0
 30
17.5
 40
7.9
100
AcDbArc
 50
0.0
 51
180.0
  0
ARC
  5
EE
330
E7
100
AcDbEntity
  8
Predefinito
100
AcDbCircle
 10
0.0
 20
0.0
 30
17.5
 40
7.9
100
AcDbArc
 50
180.0
 51
0.0
  0
ARC
  5
EF
330
E7
100
AcDbEntity
  8
Predefinito
100
AcDbCircle
 10
0.0
 20
0.0
 30
19.0
 40
7.9
100
AcDbArc
 50
180.0
 51
0.0
  0
ARC
  5
F0
330
E7
100
AcDbEntity
  8
Predefinito
100
AcDbCircle
 10
0.0
 20
0.0
 30
19.0
 40
7.9
100
AcDbArc
 50
0.000000000000007
 51
180.0
  0
LINE
  5
F1
330
E7
100
AcDbEntity
  8
Predefinito
100
AcDbLine
 10
7.9
 20
0.0
 30
17.5
 11
7.9
 21
-0.0000000000000004
 31
19.0
  0
ARC
  5
F2
330
E7
100
AcDbEntity
  8
Predefinito
100
AcDbCircle
 10
0.0000000000000091
 20
-0.0000000000000002
 30
15.10301216659649
 40
2.999999999999996
100
AcDbArc
 50
0.0000000000000042
 51
90.00000000000006
  0
ARC
  5
F3
330
E7
100
AcDbEntity
  8
Predefinito
100
AcDbCircle
 10
0.0000000000000051
 20
0.0
 30
19.0
 40
3.0
100
AcDbArc
 50
180.0
 51
0.0
  0
ARC
  5
F4
330
E7
100
AcDbEntity
  8
Predefinito
100
AcDbCircle
 10
0.0000000000000051
 20
0.0
 30
19.0
 40
3.0
100
AcDbArc
 50
0.0
 51
180.0
  0
LINE
  5
F5
330
E7
100
AcDbEntity
  8
Predefinito
100
AcDbLine
 10
3.000000000000005
 20
0.0
 30
15.1030121665965
 11
3.000000000000005
 21
0.0000000000000001
 31
19.0
  0
ARC
  5
F6
330
E7
100
AcDbEntity
  8
Predefinito
100
AcDbCircle
 10
0.0000000000000075
 20
0.0000000000000004
 30
13.0
 40
6.5
100
AcDbArc
 50
270.0
 51
0.0
  0
ARC
  5
F7
330
E7
100
AcDbEntity
  8
Predefinito
100
AcDbCircle
 10
0.0000000000000078
 20
0.0000000000000007
 30
0.0000000000000015
 40
6.499999999999999
100
AcDbArc
 50
0.0
 51
90.00000000000001
  0
ARC
  5
F8
330
E7
100
AcDbEntity
  8
Predefinito
100
AcDbCircle
 10
0.0000000000000071
 20
0.0
 30
0.0000000000000006
 40
6.5
100
AcDbArc
 50
90.00000000000001
 51
270.0
  0
LINE
  5
F9
330
E7
100
AcDbEntity
  8
Predefinito
100
AcDbLine
 10
6.500000000000007
 20
0.0
 30
0.0000000000000013
 11
6.500000000000007
 21
0.0
 31
13.0
  0
ARC
  5
FA
330
E7
100
AcDbEntity
  8
Predefinito
100
AcDbCircle
 10
0.0000000000000058
 20
0.0000000000000013
 30
0.0000000000000016
 40
6.500000000000002
100
AcDbArc
 50
270.0
 51
0.0
  0
ARC
  5
FB
330
E7
100
AcDbEntity
  8
Predefinito
100
AcDbCircle
 10
0.0000000000000072
 20
-0.0000000000000004
 30
13.0
 40
6.499999999999998
100
AcDbArc
 50
90.0
 51
270.0
  0
ARC
  5
FC
330
E7
100
AcDbEntity
  8
Predefinito
100
AcDbCircle
 10
0.0000000000000072
 20
0.0000000000000018
 30
15.10301216659649
 40
2.999999999999994
100
AcDbArc
 50
90.00000000000004
 51
270.0
  0
LINE
  5
FD
330
E7
100
AcDbEntity
  8
Predefinito
100
AcDbLine
 10
0.0000000000000072
 20
-2.999999999999992
 30
15.10301216659649
 11
0.0000000000000072
 21
-6.499999999999999
 31
13.0
  0
ARC
  5
FE
330
E7
100
AcDbEntity
  8
Predefinito
100
AcDbCircle
 10
0.0000000000000071
 20
-0.0000000000000018
 30
13.0
 40
6.5
100
AcDbArc
 50
0.0
 51
90.0
  0
ARC
  5
FF
330
E7
100
AcDbEntity
  8
Predefinito
100
AcDbCircle
 10
0.0000000000000074
 20
0.0000000000000059
 30
15.1030121665965
 40
2.999999999999998
100
AcDbArc
 50
270.0
 51
0.000000000000016
  0
LINE
  5
100
330
E7
100
AcDbEntity
  8
Predefinito
100
AcDbLine
 10
7.399999999999999
 20
0.0
 30
17.0
 11
7.9
 21
0.0
 31
17.5
  0
LINE
  5
101
330
E7
100
AcDbEntity
  8
Predefinito
100
AcDbLine
 10
-7.4
 20
0.0
 30
0.0000000000000007
 11
-6.499999999999992
 21
0.0
 31
0.0000000000000007
  0
LINE
  5
102
330
E7
100
AcDbEntity
  8
Predefinito
100
AcDbLine
 10
6.500000000000007
 20
0.0
 30
0.0000000000000007
 11
7.4
 21
0.0
 31
0.0000000000000007
  0
LINE
  5
103
330
E7
100
AcDbEntity
  8
Predefinito
100
AcDbLine
 10
0.0
 20
-7.4
 30
0.0000000000000007
 11
0.0
 21
-6.5
 31
0.0000000000000007
  0
LINE
  5
104
330
E7
100
AcDbEntity
  8
Predefinito
100
AcDbLine
 10
0.0
 20
6.499999999999999
 30
0.0000000000000007
 11
0.0
 21
7.400000000000003
 31
0.0000000000000007
  0
CIRCLE
  5
105
330
E7
100
AcDbEntity
  8
Predefinito
100
AcDbCircle
 10
0.0
 20
0.0
 30
8.5
 40
7.4
  0
LINE
  5
106
330
E7
100
AcDbEntity
  8
Predefinito
100
AcDbLine
 10
0.0
 20
7.4
 30
-0.0000000000000002
 11
0.0
 21
7.4
 31
17.0
  0
LINE
  5
107
330
E7
100
AcDbEntity
  8
Predefinito
100
AcDbLine
 10
-7.4
 20
0.0
 30
-0.0000000000000004
 11
-7.4
 21
0.0
 31
17.0
  0
LINE
  5
108
330
E7
100
AcDbEntity
  8
Predefinito
100
AcDbLine
 10
0.0
 20
-7.4
 30
-0.0000000000000004
 11
0.0
 21
-7.4
 31
17.0
  0
CIRCLE
  5
109
330
E7
100
AcDbEntity
  8
Predefinito
100
AcDbCircle
 10
0.0
 20
0.0
 30
18.25
 40
7.9
  0
LINE
  5
10A
330
E7
100
AcDbEntity
  8
Predefinito
100
AcDbLine
 10
0.0
 20
7.9
 30
17.5
 11
0.0
 21
7.9
 31
19.0
  0
LINE
  5
10B
330
E7
100
AcDbEntity
  8
Predefinito
100
AcDbLine
 10
-7.9
 20
0.0
 30
17.5
 11
-7.9
 21
0.0
 31
19.0
  0
LINE
  5
10C
330
E7
100
AcDbEntity
  8
Predefinito
100
AcDbLine
 10
0.0
 20
-7.9
 30
17.5
 11
0.0
 21
-7.9
 31
19.0
  0
LINE
  5
10D
330
E7
100
AcDbEntity
  8
Predefinito
100
AcDbLine
 10
7.9
 20
0.0
 30
19.0
 11
3.000000000000004
 21
0.0
 31
19.0
  0
LINE
  5
10E
330
E7
100
AcDbEntity
  8
Predefinito
100
AcDbLine
 10
-2.999999999999996
 20
0.0
 30
19.0
 11
-7.9
 21
0.0
 31
19.0
  0
LINE
  5
10F
330
E7
100
AcDbEntity
  8
Predefinito
100
AcDbLine
 10
0.0
 20
-7.900000000000001
 30
19.0
 11
0.0
 21
-3.0
 31
19.0
  0
LINE
  5
110
330
E7
100
AcDbEntity
  8
Predefinito
100
AcDbLine
 10
0.0
 20
3.0
 30
19.0
 11
0.0
 21
7.9
 31
19.0
  0
CIRCLE
  5
111
330
E7
100
AcDbEntity
  8
Predefinito
100
AcDbCircle
 10
0.0000000000000051
 20
0.0
 30
17.05150608329825
 40
3.0
  0
LINE
  5
112
330
E7
100
AcDbEntity
  8
Predefinito
100
AcDbLine
 10
0.0000000000000051
 20
3.0
 30
15.1030121665965
 11
0.0000000000000051
 21
3.0
 31
19.0
  0
LINE
  5
113
330
E7
100
AcDbEntity
  8
Predefinito
100
AcDbLine
 10
-2.999999999999995
 20
0.0
 30
15.1030121665965
 11
-2.999999999999995
 21
0.0
 31
19.0
  0
LINE
  5
114
330
E7
100
AcDbEntity
  8
Predefinito
100
AcDbLine
 10
0.0000000000000051
 20
-3.0
 30
15.1030121665965
 11
0.0000000000000051
 21
-3.0
 31
19.0
  0
CIRCLE
  5
115
330
E7
100
AcDbEntity
  8
Predefinito
100
AcDbCircle
 10
0.0000000000000072
 20
0.0
 30
6.5
 40
6.5
  0
LINE
  5
116
330
E7
100
AcDbEntity
  8
Predefinito
100
AcDbLine
 10
0.0000000000000072
 20
6.5
 30
0.0
 11
0.0000000000000072
 21
6.5
 31
13.0
  0
LINE
  5
117
330
E7
100
AcDbEntity
  8
Predefinito
100
AcDbLine
 10
-6.499999999999993
 20
0.0
 30
0.0
 11
-6.499999999999993
 21
0.0
 31
13.0
  0
LINE
  5
118
330
E7
100
AcDbEntity
  8
Predefinito
100
AcDbLine
 10
0.0000000000000072
 20
-6.5
 30
0.0
 11
0.0000000000000072
 21
-6.5
 31
13.0
  0
CIRCLE
  5
119
330
E7
100
AcDbEntity
  8
Predefinito
100
AcDbCircle
 10
0.0000000000000072
 20
0.0
 30
14.72751731065563
 40
3.624928384470518
  0
LINE
  5
11A
330
E7
100
AcDbEntity
  8
Predefinito
100
AcDbLine
 10
-2.999999999999984
 20
0.0
 30
15.10301216659649
 11
-6.49999999999999
 21
0.0
 31
13.0
  0
LINE
  5
11B
330
E7
100
AcDbEntity
  8
Predefinito
100
AcDbLine
 10
0.0000000000000072
 20
2.999999999999991
 30
15.10301216659649
 11
0.0000000000000072
 21
6.499999999999998
 31
13.0
  0
LINE
  5
11C
330
E7
100
AcDbEntity
  8
Predefinito
100
AcDbLine
 10
2.999999999999998
 20
0.0
 30
15.10301216659649
 11
6.500000000000005
 21
0.0
 31
13.0
  0
LINE
  5
11D
330
E7
100
AcDbEntity
  8
Predefinito
100
AcDbLine
 10
0.0
 20
7.399999999999999
 30
17.0
 11
0.0
 21
7.9
 31
17.5
  0
LINE
  5
11E
330
E7
100
AcDbEntity
  8
Predefinito
100
AcDbLine
 10
-7.399999999999999
 20
0.0
 30
17.0
 11
-7.9
 21
0.0
 31
17.5
  0
LINE
  5
11F
330
E7
100
AcDbEntity
  8
Predefinito
100
AcDbLine
 10
0.0
 20
-7.399999999999999
 30
17.0
 11
0.0
 21
-7.9
 31
17.5
  0
ENDBLK
  5
121
330
E7
100
AcDbEntity
  8
0
100
AcDbBlockEnd
  0
BLOCK
  5
164
330
124
100
AcDbEntity
  8
0
100
AcDbBlockBegin
  2
10RA07060YY
 70
     0
 10
0.0
 20
0.0
 30
0.0
  3
10RA07060YY
  1
10RA07060YY
  0
ARC
  5
125
330
124
100
AcDbEntity
  8
Predefinito
100
AcDbCircle
 10
0.0
 20
0.0
 30
10.0
 40
8.40000000000001
100
AcDbArc
 50
0.0
 51
180.0
  0
ARC
  5
126
330
124
100
AcDbEntity
  8
Predefinito
100
AcDbCircle
 10
0.0
 20
0.0
 30
10.0
 40
8.40000000000001
100
AcDbArc
 50
180.0
 51
0.0
  0
ARC
  5
127
330
124
100
AcDbEntity
  8
Predefinito
100
AcDbCircle
 10
0.0
 20
0.0
 30
42.5
 40
8.40000000000001
100
AcDbArc
 50
180.0
 51
0.0
  0
ARC
  5
128
330
124
100
AcDbEntity
  8
Predefinito
100
AcDbCircle
 10
0.0
 20
0.0
 30
42.5
 40
8.40000000000001
100
AcDbArc
 50
0.000000000000007
 51
180.0
  0
LINE
  5
129
330
124
100
AcDbEntity
  8
Predefinito
100
AcDbLine
 10
8.40000000000001
 20
0.0
 30
39.06699989780437
 11
8.40000000000001
 21
-0.0000000000000004
 31
42.5
  0
LINE
  5
12A
330
124
100
AcDbEntity
  8
Predefinito
100
AcDbLine
 10
8.40000000000001
 20
-0.0000000000000004
 30
9.999999999999998
 11
8.40000000000001
 21
0.0000000000000002
 31
34.93299999999999
  0
ARC
  5
12B
330
124
100
AcDbEntity
  8
Predefinito
100
AcDbCircle
 10
0.0000000000000013
 20
-0.0000000000000022
 30
42.5
 40
6.300000000000001
100
AcDbArc
 50
90.00000000000001
 51
180.0
  0
ARC
  5
12C
330
124
100
AcDbEntity
  8
Predefinito
100
AcDbCircle
 10
0.0000000000000004
 20
0.0000000000000004
 30
42.5
 40
6.300000000000001
100
AcDbArc
 50
180.0
 51
270.0
  0
ARC
  5
12D
330
124
100
AcDbEntity
  8
Predefinito
100
AcDbCircle
 10
0.0
 20
0.0000000000000009
 30
10.28542189987362
 40
6.3
100
AcDbArc
 50
90.00000000000001
 51
180.0
  0
LINE
  5
12E
330
124
100
AcDbEntity
  8
Predefinito
100
AcDbLine
 10
-6.3
 20
0.0
 30
42.5
 11
-6.3
 21
0.0
 31
10.28542189987359
  0
ARC
  5
12F
330
124
100
AcDbEntity
  8
Predefinito
100
AcDbCircle
 10
0.0000000000000009
 20
0.0
 30
42.50000000000001
 40
6.3
100
AcDbArc
 50
270.0
 51
90.0
  0
SPLINE
  5
130
330
124
100
AcDbEntity
  8
Predefinito
100
AcDbSpline
 70
     0
 71
     3
 72
    18
 73
    14
 74
     0
 42
0.000000001
 43
0.0000000001
 40
-0.0130138670530851
 40
-0.0130138670530851
 40
-0.0130138670530851
 40
-0.0130138670530851
 40
-0.0129121587230934
 40
-0.0129121587230934
 40
-0.0128104503931016
 40
-0.0128104503931016
 40
-0.0126070337331182
 40
-0.0126070337331182
 40
-0.0122002004131513
 40
-0.0122002004131513
 40
-0.011387009741849
 40
-0.011387009741849
 40
-0.0097604059316659
 40
-0.0097604059316659
 40
-0.0097604059316659
 40
-0.0097604059316659
 10
6.300000000000001
 20
0.0000000000000003
 30
39.067
 10
6.299999999945185
 20
-0.1482857322057412
 30
39.06703374151965
 10
6.295309361466694
 20
-0.2599765240163774
 30
39.05232509666191
 10
6.285000143961401
 20
-0.4441631873418123
 30
39.01929543734357
 10
6.278891385377544
 20
-0.5195354303234925
 30
39.0000617196764
 10
6.260408505602693
 20
-0.7175386604798553
 30
38.94077398529693
 10
6.247423052177095
 20
-0.8170537015141752
 30
38.89869593951062
 10
6.209194275955848
 20
-1.080459464889456
 30
38.77178354845901
 10
6.184705080898644
 20
-1.204759389987404
 30
38.68460711389348
 10
6.1162293447613
 20
-1.52635871894609
 30
38.42219922255323
 10
6.077331958770436
 20
-1.66373849057157
 30
38.24500886463345
 10
5.985094259306706
 20
-1.979044720080647
 30
37.71341564907337
 10
5.95124801237211
 20
-2.067042534114308
 30
37.356824513502
 10
5.951261283960416
 20
-2.067
 30
37.0
  0
ARC
  5
131
330
124
100
AcDbEntity
  8
Predefinito
100
AcDbCircle
 10
-0.0000000000000036
 20
0.0
 30
0.4999999999999999
 40
9.000000000000007
100
AcDbArc
 50
0.0
 51
180.0
  0
ARC
  5
132
330
124
100
AcDbEntity
  8
Predefinito
100
AcDbCircle
 10
-0.0000000000000036
 20
0.0
 30
0.4999999999999999
 40
9.000000000000007
100
AcDbArc
 50
180.0
 51
0.0
  0
ARC
  5
133
330
124
100
AcDbEntity
  8
Predefinito
100
AcDbCircle
 10
-0.0000000000000009
 20
0.0
 30
10.0
 40
9.000000000000004
100
AcDbArc
 50
180.0
 51
0.0
  0
ARC
  5
134
330
124
100
AcDbEntity
  8
Predefinito
100
AcDbCircle
 10
0.0000000000000009
 20
0.0
 30
10.0
 40
9.000000000000004
100
AcDbArc
 50
0.000000000000007
 51
180.0
  0
LINE
  5
135
330
124
100
AcDbEntity
  8
Predefinito
100
AcDbLine
 10
9.000000000000004
 20
0.0
 30
0.5000000000000002
 11
9.000000000000005
 21
-0.0000000000000004
 31
10.0
  0
LINE
  5
136
330
124
100
AcDbEntity
  8
Predefinito
100
AcDbLine
 10
0.0
 20
0.0
 30
6.499999999999931
 11
0.0
 21
6.300000000000001
 31
10.28542189987362
  0
ARC
  5
137
330
124
100
AcDbEntity
  8
Predefinito
100
AcDbCircle
 10
0.0000000000000004
 20
0.0000000000000004
 30
10.28542189987359
 40
6.300000000000001
100
AcDbArc
 50
180.0
 51
270.0
  0
ARC
  5
138
330
124
100
AcDbEntity
  8
Predefinito
100
AcDbCircle
 10
0.0
 20
0.0000000000000004
 30
10.28542189987361
 40
6.300000000000001
100
AcDbArc
 50
270.0
 51
90.0
  0
ARC
  5
139
330
124
100
AcDbEntity
  8
Predefinito
100
AcDbCircle
 10
0.0
 20
0.0
 30
0.0
 40
8.5
100
AcDbArc
 50
0.0
 51
180.0
  0
ARC
  5
13A
330
124
100
AcDbEntity
  8
Predefinito
100
AcDbCircle
 10
0.0
 20
0.0
 30
0.0
 40
8.5
100
AcDbArc
 50
180.0
 51
0.0
  0
ARC
  5
13B
330
124
100
AcDbEntity
  8
Predefinito
100
AcDbCircle
 10
-8.5
 20
0.5000000000000037
 30
-0.0000000000000075
 40
0.5000000000000037
210
-8.327598234202001E-16
220
1.0
230
5.916456789157586E-30
100
AcDbArc
 50
180.0000000000004
 51
270.0
  0
SPLINE
  5
13C
330
124
100
AcDbEntity
  8
Predefinito
100
AcDbSpline
 70
     0
 71
     3
 72
    12
 73
     8
 74
     0
 42
0.000000001
 43
0.0000000001
 40
-0.0097308809287708
 40
-0.0097308809287708
 40
-0.0097308809287708
 40
-0.0097308809287708
 40
-0.0085103578645645
 40
-0.0085103578645645
 40
-0.0072968566906894
 40
-0.0072968566906894
 40
-0.0064766976746095
 40
-0.0064766976746095
 40
-0.0064766976746095
 40
-0.0064766976746095
 10
8.141714221107788
 20
-2.067
 30
37.0
 10
8.14182447113981
 20
-2.067000193896925
 30
37.41931323561351
 10
8.17948752892478
 20
-1.941180548622714
 30
37.81691138502653
 10
8.270530618653545
 20
-1.492201328821288
 30
38.48551944355866
 10
8.32398833688016
 20
-1.172974585436106
 30
38.74965033371169
 10
8.384773213834546
 20
-0.5448374709208642
 30
39.01255261555443
 10
8.399445854013958
 20
-0.2740710681275562
 30
39.06713760695322
 10
8.40000000000001
 20
0.0
 30
39.06699989780437
  0
SPLINE
  5
13D
330
124
100
AcDbEntity
  8
Predefinito
100
AcDbSpline
 70
     0
 71
     3
 72
    10
 73
     6
 74
     0
 42
0.000000001
 43
0.0000000001
 40
-0.0129730141087089
 40
-0.0129730141087089
 40
-0.0129730141087089
 40
-0.0129730141087089
 40
-0.0113521713102285
 40
-0.0113521713102285
 40
-0.0097308809287708
 40
-0.0097308809287708
 40
-0.0097308809287708
 40
-0.0097308809287708
 10
8.40000000000001
 20
0.0000000000000002
 30
34.93299999999999
 10
8.399968806527092
 20
-0.5627451776510048
 30
34.93299999999999
 10
8.335411083466049
 20
-1.086456900017706
 30
35.16336407121425
 10
8.206279687562734
 20
-1.836488514105143
 30
35.91322249112495
 10
8.141706015238869
 20
-2.067
 30
36.43707401348238
 10
8.141714221107788
 20
-2.067
 30
37.0
  0
SPLINE
  5
13E
330
124
100
AcDbEntity
  8
Predefinito
100
AcDbSpline
 70
     0
 71
     3
 72
    12
 73
     8
 74
     0
 42
0.000000001
 43
0.0000000001
 40
-0.009760645976598
 40
-0.009760645976598
 40
-0.009760645976598
 40
-0.009760645976598
 40
-0.008598039457766
 40
-0.008598039457766
 40
-0.0074465578745504
 40
-0.0074465578745504
 40
-0.006582111803814
 40
-0.006582111803814
 40
-0.006582111803814
 40
-0.006582111803814
 10
5.951261283960416
 20
-2.067
 30
37.0
 10
5.951471888926906
 20
-2.067001237188761
 30
36.56977707039162
 10
6.003725130860663
 20
-1.938884149886523
 30
36.17901008470209
 10
6.126657643588995
 20
-1.492031023368954
 30
35.51608241930431
 10
6.197558368778215
 20
-1.178783980295981
 30
35.25523196442026
 10
6.283170398273172
 20
-0.5228740977112942
 30
34.97866416799008
 10
6.29950740539415
 20
-0.253480624440163
 30
34.93162749201728
 10
6.299999944081677
 20
0.0008393871975129
 30
34.93300017043321
  0
LINE
  5
13F
330
124
100
AcDbEntity
  8
Predefinito
100
AcDbLine
 10
8.141714221107788
 20
-2.067
 30
37.0
 11
5.951261283960416
 21
-2.067
 31
37.0
  0
SPLINE
  5
140
330
124
100
AcDbEntity
  8
Predefinito
100
AcDbSpline
 70
     0
 71
     3
 72
    16
 73
    12
 74
     0
 42
0.000000001
 43
0.0000000001
 40
-0.0064766976746095
 40
-0.0064766976746095
 40
-0.0064766976746095
 40
-0.0064766976746095
 40
-0.0060694560266743
 40
-0.0060694560266743
 40
-0.0048582125538665
 40
-0.0048582125538665
 40
-0.003645634009284
 40
-0.003645634009284
 40
-0.002417195430378
 40
-0.002417195430378
 40
0.0
 40
0.0
 40
0.0
 40
0.0
 10
8.40000000000001
 20
0.0
 30
39.06699989780437
 10
8.400241355379684
 20
0.1360872743736613
 30
39.0669380897767
 10
8.397001649646835
 20
0.2729893202853668
 30
39.05338432272596
 10
8.368212358877578
 20
0.8134328639724135
 30
38.94430069064153
 10
8.320743231252608
 20
1.17806119520304
 30
38.74484027012938
 10
8.224777379436263
 20
1.744959025912316
 30
38.17815181510446
 10
8.176229499071912
 20
1.944538212659805
 30
37.81338935130848
 10
8.13143830588817
 20
2.108921368915025
 30
36.99842418379332
 10
8.146274797247939
 20
2.065340861217277
 30
36.5807468079681
 10
8.256818898295975
 20
1.594414779561974
 30
35.45592123436779
 10
8.400047112594697
 20
0.8499320170042891
 30
34.93299999998131
 10
8.40000000000001
 20
0.0000000000000002
 30
34.93299999999999
  0
SPLINE
  5
141
330
124
100
AcDbEntity
  8
Predefinito
100
AcDbSpline
 70
     0
 71
     3
 72
    20
 73
    16
 74
     0
 42
0.000000001
 43
0.0000000001
 40
0.0
 40
0.0
 40
0.0
 40
0.0
 40
0.0011175260035123
 40
0.0011175260035123
 40
0.0022515697585248
 40
0.0022515697585248
 40
0.0035005085988073
 40
0.0035005085988073
 40
0.0047187565951689
 40
0.0047187565951689
 40
0.0054088062135928
 40
0.0054088062135928
 40
0.0060988558320167
 40
0.0060988558320167
 40
0.006582111803814
 40
0.006582111803814
 40
0.006582111803814
 40
0.006582111803814
 10
6.300000000000001
 20
0.0000000000000003
 30
39.067
 10
6.29999846243315
 20
0.4051071550044677
 30
39.06700003763945
 10
6.251181367747434
 20
0.819144017776663
 30
38.94097932081868
 10
6.129253907251629
 20
1.498869197864692
 30
38.48232259885703
 10
6.055793229685471
 20
1.758179170365586
 30
38.15084347266313
 10
5.95755484242599
 20
2.065993160083475
 30
37.42100304061267
 10
5.93684773340228
 20
2.110886950537572
 30
37.00713932588896
 10
5.999718243707724
 20
1.94167500107534
 30
36.17858370184786
 10
6.065379083271818
 20
1.742703656064847
 30
35.82127837360891
 10
6.165904790488749
 20
1.303479410520906
 30
35.38181735791084
 10
6.198820248365588
 20
1.13310331062542
 30
35.26169006577142
 10
6.252800098476607
 20
0.78238661402242
 30
35.07839271515017
 10
6.273875960089671
 20
0.6014293384082979
 30
35.01490566741634
 10
6.295473635744988
 20
0.2804772104206839
 30
34.94953970444528
 10
6.300211455136653
 20
0.1430136901027668
 30
34.93370429191331
 10
6.299999944081677
 20
0.0008393871975129
 30
34.93300017043321
  0
CIRCLE
  5
142
330
124
100
AcDbEntity
  8
Predefinito
100
AcDbCircle
 10
0.0
 20
0.0
 30
26.25
 40
8.40000000000001
  0
LINE
  5
143
330
124
100
AcDbEntity
  8
Predefinito
100
AcDbLine
 10
0.0
 20
8.40000000000001
 30
10.0
 11
0.0
 21
8.40000000000001
 31
42.49999999999999
  0
LINE
  5
144
330
124
100
AcDbEntity
  8
Predefinito
100
AcDbLine
 10
-8.40000000000001
 20
0.0
 30
10.0
 11
-8.40000000000001
 21
0.0
 31
42.49999999999999
  0
LINE
  5
145
330
124
100
AcDbEntity
  8
Predefinito
100
AcDbLine
 10
0.0
 20
-8.40000000000001
 30
9.999999999999998
 11
0.0
 21
-8.40000000000001
 31
42.49999999999999
  0
CIRCLE
  5
146
330
124
100
AcDbEntity
  8
Predefinito
100
AcDbCircle
 10
0.0
 20
0.0
 30
26.39271094993683
 40
6.3
  0
LINE
  5
147
330
124
100
AcDbEntity
  8
Predefinito
100
AcDbLine
 10
0.0
 20
6.3
 30
42.50000000000001
 11
0.0
 21
6.3
 31
10.28542189987359
  0
LINE
  5
148
330
124
100
AcDbEntity
  8
Predefinito
100
AcDbLine
 10
6.3
 20
0.0
 30
42.50000000000001
 11
6.3
 21
0.0
 31
39.067
  0
LINE
  5
149
330
124
100
AcDbEntity
  8
Predefinito
100
AcDbLine
 10
6.3
 20
0.0
 30
34.93300044307902
 11
6.3
 21
0.0
 31
10.28542189987359
  0
LINE
  5
14A
330
124
100
AcDbEntity
  8
Predefinito
100
AcDbLine
 10
0.0
 20
-6.3
 30
42.50000000000001
 11
0.0
 21
-6.3
 31
10.28542189987359
  0
LINE
  5
14B
330
124
100
AcDbEntity
  8
Predefinito
100
AcDbLine
 10
-8.5
 20
0.0
 30
0.0
 11
8.5
 21
0.0
 31
0.0
  0
LINE
  5
14C
330
124
100
AcDbEntity
  8
Predefinito
100
AcDbLine
 10
0.0
 20
-8.5
 30
0.0
 11
0.0
 21
8.5
 31
0.0
  0
CIRCLE
  5
14D
330
124
100
AcDbEntity
  8
Predefinito
100
AcDbCircle
 10
0.0
 20
0.0
 30
5.25
 40
9.00000000000001
  0
LINE
  5
14E
330
124
100
AcDbEntity
  8
Predefinito
100
AcDbLine
 10
0.0
 20
9.00000000000001
 30
0.4999999999999999
 11
0.0
 21
9.00000000000001
 31
10.0
  0
LINE
  5
14F
330
124
100
AcDbEntity
  8
Predefinito
100
AcDbLine
 10
-9.00000000000001
 20
0.0
 30
0.4999999999999999
 11
-9.00000000000001
 21
0.0
 31
10.0
  0
LINE
  5
150
330
124
100
AcDbEntity
  8
Predefinito
100
AcDbLine
 10
0.0
 20
-9.00000000000001
 30
0.4999999999999999
 11
0.0
 21
-9.00000000000001
 31
10.0
  0
LINE
  5
151
330
124
100
AcDbEntity
  8
Predefinito
100
AcDbLine
 10
9.0
 20
0.0
 30
10.0
 11
8.40000000000001
 21
0.0
 31
10.0
  0
LINE
  5
152
330
124
100
AcDbEntity
  8
Predefinito
100
AcDbLine
 10
-8.40000000000001
 20
0.0
 30
10.0
 11
-9.0
 21
0.0
 31
10.0
  0
LINE
  5
153
330
124
100
AcDbEntity
  8
Predefinito
100
AcDbLine
 10
0.0
 20
-9.0
 30
10.0
 11
0.0
 21
-8.40000000000001
 31
10.0
  0
LINE
  5
154
330
124
100
AcDbEntity
  8
Predefinito
100
AcDbLine
 10
0.0
 20
8.400000000000007
 30
10.0
 11
0.0
 21
8.999999999999998
 31
10.0
  0
LINE
  5
155
330
124
100
AcDbEntity
  8
Predefinito
100
AcDbLine
 10
8.400000000000011
 20
-0.0000000000000018
 30
42.5
 11
6.300000000000002
 21
-0.0000000000000018
 31
42.5
  0
LINE
  5
156
330
124
100
AcDbEntity
  8
Predefinito
100
AcDbLine
 10
-6.300000000000002
 20
-0.0000000000000018
 30
42.5
 11
-8.400000000000006
 21
-0.0000000000000018
 31
42.5
  0
LINE
  5
157
330
124
100
AcDbEntity
  8
Predefinito
100
AcDbLine
 10
-0.0000000000000018
 20
-8.40000000000001
 30
42.5
 11
-0.0000000000000018
 21
-6.299999999999999
 31
42.5
  0
LINE
  5
158
330
124
100
AcDbEntity
  8
Predefinito
100
AcDbLine
 10
-0.0000000000000018
 20
6.299999999999999
 30
42.5
 11
-0.0000000000000018
 21
8.400000000000006
 31
42.5
  0
CIRCLE
  5
159
330
124
100
AcDbEntity
  8
Predefinito
100
AcDbCircle
 10
0.0
 20
0.0
 30
8.611982044930448
 40
3.514928384470516
  0
LINE
  5
15A
330
124
100
AcDbEntity
  8
Predefinito
100
AcDbLine
 10
0.0
 20
0.0
 30
6.499999999999931
 11
-6.3
 21
0.0
 31
10.2854218998736
  0
LINE
  5
15B
330
124
100
AcDbEntity
  8
Predefinito
100
AcDbLine
 10
0.0
 20
0.0
 30
6.499999999999931
 11
0.0
 21
-6.3
 31
10.2854218998736
  0
LINE
  5
15C
330
124
100
AcDbEntity
  8
Predefinito
100
AcDbLine
 10
0.0
 20
0.0
 30
6.499999999999931
 11
6.3
 21
0.0
 31
10.2854218998736
  0
ARC
  5
15D
330
124
100
AcDbEntity
  8
Predefinito
100
AcDbCircle
 10
8.5
 20
0.5
 30
0.0
 40
0.5
210
1.0
220
0.0
230
0.0
100
AcDbArc
 50
270.0
 51
0.0
  0
ARC
  5
15E
330
124
100
AcDbEntity
  8
Predefinito
100
AcDbCircle
 10
8.5
 20
0.5
 30
0.0
 40
0.5
210
0.0
220
1.0
230
0.0
100
AcDbArc
 50
270.0
 51
0.0
  0
ARC
  5
15F
330
124
100
AcDbEntity
  8
Predefinito
100
AcDbCircle
 10
-8.5
 20
0.5
 30
0.0
 40
0.5
210
1.0
220
0.0
230
0.0
100
AcDbArc
 50
180.0
 51
270.0
  0
CIRCLE
  5
160
330
124
100
AcDbEntity
  8
Predefinito
100
AcDbCircle
 10
0.0
 20
37.0
 30
7.162559184280997
 40
2.067
210
1.0
220
0.0
230
0.0
  0
LINE
  5
161
330
124
100
AcDbEntity
  8
Predefinito
100
AcDbLine
 10
8.399022251900014
 20
0.0
 30
39.067
 11
6.300000000000002
 21
0.0
 31
39.067
  0
LINE
  5
162
330
124
100
AcDbEntity
  8
Predefinito
100
AcDbLine
 10
8.14276053404462
 20
2.067
 30
37.0
 11
5.952480032880195
 21
2.067
 31
37.0
  0
LINE
  5
163
330
124
100
AcDbEntity
  8
Predefinito
100
AcDbLine
 10
8.400000000000006
 20
0.0
 30
34.933
 11
6.298210720997913
 21
0.0
 31
34.933
  0
ENDBLK
  5
165
330
124
100
AcDbEntity
  8
0
100
AcDbBlockEnd
  0
BLOCK
  5
2C1
330
168
100
AcDbEntity
  8
0
100
AcDbBlockBegin
  2
10RA07360YY
 70
     0
 10
0.0
 20
0.0
 30
0.0
  3
10RA07360YY
  1
10RA07360YY
  0
INSERT
  5
263
330
168
100
AcDbEntity
  8
Predefinito
100
AcDbBlockReference
  2
10RA07360YY_01
 10
0.0000000000000063
 20
378.0
 30
15.00000000000005
210
-3.330669073875480E-16
220
-1.0
230
1.387778780781440E-16
  0
INSERT
  5
264
330
168
100
AcDbEntity
  8
Predefinito
100
AcDbBlockReference
  2
10RA07360YY_01
 10
-0.0000000000001096
 20
-378.0
 30
29.9999999999998
 50
179.9999999999998
210
3.330669073875470E-16
220
-1.0
230
7.771561172376090E-16
  0
INSERT
  5
2BF
330
168
100
AcDbEntity
  8
Predefinito
100
AcDbBlockReference
  2
10RA07360YY_00
 10
0.0000000000000995
 20
-378.0
 30
-0.0000000000002657
 50
180.0
210
2.775557561562890E-16
220
1.0
230
4.440892098500630E-16
  0
INSERT
  5
2C0
330
168
100
AcDbEntity
  8
Predefinito
100
AcDbBlockReference
  2
10RA07360YY_00
 10
0.0
 20
378.0
 30
0.0
 50
180.0
210
0.0
220
1.0
230
0.0
  0
ENDBLK
  5
2C2
330
168
100
AcDbEntity
  8
0
100
AcDbBlockEnd
  0
BLOCK
  5
261
330
169
100
AcDbEntity
  8
0
100
AcDbBlockBegin
  2
10RA07360YY_01
 70
     0
 10
0.0
 20
0.0
 30
0.0
  3
10RA07360YY_01
  1
10RA07360YY_01
  0
LINE
  5
16A
330
169
100
AcDbEntity
  8
Predefinito
 62
     9
420
 12632256
100
AcDbLine
 10
-2.249999999999999
 20
3.60555127546399
 30
29.0
 11
-2.249999999999999
 21
3.605551275463997
 31
31.0
  0
ARC
  5
16B
330
169
100
AcDbEntity
  8
Predefinito
 62
     9
420
 12632256
100
AcDbCircle
 10
0.0000000000000018
 20
0.0000000000000033
 30
31.00000000000001
 40
4.250000000000004
100
AcDbArc
 50
121.9657187507969
 51
238.034281249203
  0
LINE
  5
16C
330
169
100
AcDbEntity
  8
Predefinito
 62
     9
420
 12632256
100
AcDbLine
 10
-2.25
 20
-3.60555127546399
 30
31.0
 11
-2.25
 21
-3.60555127546399
 31
29.0
  0
ARC
  5
16D
330
169
100
AcDbEntity
  8
Predefinito
 62
     9
420
 12632256
100
AcDbCircle
 10
0.0000000000000016
 20
-0.0000000000000001
 30
28.99999999999999
 40
4.250000000000001
100
AcDbArc
 50
121.965718750797
 51
238.034281249203
  0
LINE
  5
16E
330
169
100
AcDbEntity
  8
Predefinito
 62
     9
420
 12632256
100
AcDbLine
 10
-2.249999999999999
 20
3.60555127546399
 30
34.0
 11
-2.249999999999999
 21
3.605551275463997
 31
36.0
  0
ARC
  5
16F
330
169
100
AcDbEntity
  8
Predefinito
 62
     9
420
 12632256
100
AcDbCircle
 10
0.0000000000000018
 20
0.0000000000000033
 30
36.0
 40
4.250000000000004
100
AcDbArc
 50
121.9657187507969
 51
238.034281249203
  0
LINE
  5
170
330
169
100
AcDbEntity
  8
Predefinito
 62
     9
420
 12632256
100
AcDbLine
 10
-2.25
 20
-3.60555127546399
 30
36.0
 11
-2.25
 21
-3.60555127546399
 31
34.0
  0
ARC
  5
171
330
169
100
AcDbEntity
  8
Predefinito
 62
     9
420
 12632256
100
AcDbCircle
 10
0.0000000000000016
 20
-0.0000000000000001
 30
33.99999999999999
 40
4.250000000000001
100
AcDbArc
 50
121.965718750797
 51
238.034281249203
  0
ARC
  5
172
330
169
100
AcDbEntity
  8
Predefinito
 62
     9
420
 12632256
100
AcDbCircle
 10
-0.000000000000001
 20
0.0
 30
38.0
 40
4.249999999999997
100
AcDbArc
 50
96.75632703058778
 51
263.2436729694122
  0
LINE
  5
173
330
169
100
AcDbEntity
  8
Predefinito
 62
     9
420
 12632256
100
AcDbLine
 10
-0.4999999999999978
 20
4.220485754033531
 30
38.0
 11
-0.4999999999999927
 21
4.220485754033531
 31
8.0
  0
ARC
  5
174
330
169
100
AcDbEntity
  8
Predefinito
 62
     9
420
 12632256
100
AcDbCircle
 10
0.0000000000000647
 20
-0.0000000000003446
 30
7.999999999999744
 40
4.250000000000346
100
AcDbArc
 50
83.24367296941358
 51
96.75632703058807
  0
LINE
  5
175
330
169
100
AcDbEntity
  8
Predefinito
 62
     9
420
 12632256
100
AcDbLine
 10
0.5000000000000023
 20
4.220485754033544
 30
8.0
 11
0.5000000000000018
 21
4.22048575403353
 31
38.0
  0
ARC
  5
176
330
169
100
AcDbEntity
  8
Predefinito
 62
     9
420
 12632256
100
AcDbCircle
 10
0.0000000000000044
 20
-0.0000000000000001
 30
38.0
 40
4.249999999999996
100
AcDbArc
 50
0.0000000000000037
 51
83.2436729694122
  0
ARC
  5
177
330
169
100
AcDbEntity
  8
Predefinito
 62
     9
420
 12632256
100
AcDbCircle
 10
0.0000000000000058
 20
-0.0000000000000013
 30
38.0
 40
4.249999999999995
100
AcDbArc
 50
276.7563270305878
 51
0.0000000000000135
  0
LINE
  5
178
330
169
100
AcDbEntity
  8
Predefinito
 62
     9
420
 12632256
100
AcDbLine
 10
0.5000000000000018
 20
-4.22048575403353
 30
38.0
 11
0.5000000000000014
 21
-4.220485754033544
 31
8.0
  0
ARC
  5
179
330
169
100
AcDbEntity
  8
Predefinito
 62
     9
420
 12632256
100
AcDbCircle
 10
0.0000000000000606
 20
0.000000000000318
 30
7.999999999999744
 40
4.25000000000032
100
AcDbArc
 50
263.243672969412
 51
276.7563270305865
  0
LINE
  5
17A
330
169
100
AcDbEntity
  8
Predefinito
 62
     9
420
 12632256
100
AcDbLine
 10
-0.4999999999999929
 20
-4.220485754033531
 30
8.0
 11
-0.4999999999999981
 21
-4.220485754033531
 31
38.0
  0
ARC
  5
17B
330
169
100
AcDbEntity
  8
Predefinito
 62
     9
420
 12632256
100
AcDbCircle
 10
0.0
 20
0.0
 30
1.000000000000002
 40
4.25
100
AcDbArc
 50
0.0
 51
180.0
  0
ARC
  5
17C
330
169
100
AcDbEntity
  8
Predefinito
 62
     9
420
 12632256
100
AcDbCircle
 10
0.0
 20
0.0
 30
1.000000000000002
 40
4.25
100
AcDbArc
 50
180.0
 51
0.0
  0
ARC
  5
17D
330
169
100
AcDbEntity
  8
Predefinito
 62
     9
420
 12632256
100
AcDbCircle
 10
-0.0000000000000126
 20
0.0000000000000017
 30
36.00000000000004
 40
4.250000000000012
100
AcDbArc
 50
301.965718750797
 51
0.0
  0
ARC
  5
17E
330
169
100
AcDbEntity
  8
Predefinito
 62
     9
420
 12632256
100
AcDbCircle
 10
-0.0000000000000026
 20
-0.0000000000000017
 30
36.00000000000004
 40
4.250000000000003
100
AcDbArc
 50
0.0000000000000165
 51
58.03428124920303
  0
LINE
  5
17F
330
169
100
AcDbEntity
  8
Predefinito
 62
     9
420
 12632256
100
AcDbLine
 10
2.249999999999999
 20
3.60555127546399
 30
36.0
 11
2.25
 21
3.60555127546399
 31
34.0
  0
ARC
  5
180
330
169
100
AcDbEntity
  8
Predefinito
 62
     9
420
 12632256
100
AcDbCircle
 10
0.0000000000000023
 20
0.000000000000002
 30
34.0
 40
4.249999999999997
100
AcDbArc
 50
359.9999999999999
 51
58.03428124920306
  0
ARC
  5
181
330
169
100
AcDbEntity
  8
Predefinito
 62
     9
420
 12632256
100
AcDbCircle
 10
-0.0000000000000002
 20
-0.0000000000000001
 30
34.0
 40
4.25
100
AcDbArc
 50
301.965718750797
 51
0.0000000000000101
  0
LINE
  5
182
330
169
100
AcDbEntity
  8
Predefinito
 62
     9
420
 12632256
100
AcDbLine
 10
2.249999999999999
 20
-3.60555127546399
 30
34.0
 11
2.249999999999998
 21
-3.605551275463997
 31
36.0
  0
ARC
  5
183
330
169
100
AcDbEntity
  8
Predefinito
 62
     9
420
 12632256
100
AcDbCircle
 10
-0.0000000000000094
 20
-0.0000000000000005
 30
31.00000000000001
 40
4.25000000000001
100
AcDbArc
 50
301.965718750797
 51
0.0000000000000064
  0
ARC
  5
184
330
169
100
AcDbEntity
  8
Predefinito
 62
     9
420
 12632256
100
AcDbCircle
 10
-0.0000000000000002
 20
-0.0000000000000004
 30
31.00000000000001
 40
4.25
100
AcDbArc
 50
0.0000000000000079
 51
58.03428124920306
  0
LINE
  5
185
330
169
100
AcDbEntity
  8
Predefinito
 62
     9
420
 12632256
100
AcDbLine
 10
2.249999999999999
 20
3.60555127546399
 30
31.0
 11
2.25
 21
3.60555127546399
 31
29.0
  0
ARC
  5
186
330
169
100
AcDbEntity
  8
Predefinito
 62
     9
420
 12632256
100
AcDbCircle
 10
0.0000000000000023
 20
0.000000000000002
 30
29.0
 40
4.249999999999997
100
AcDbArc
 50
359.9999999999999
 51
58.03428124920306
  0
ARC
  5
187
330
169
100
AcDbEntity
  8
Predefinito
 62
     9
420
 12632256
100
AcDbCircle
 10
-0.0000000000000002
 20
-0.0000000000000001
 30
29.0
 40
4.25
100
AcDbArc
 50
301.965718750797
 51
0.0000000000000101
  0
LINE
  5
188
330
169
100
AcDbEntity
  8
Predefinito
 62
     9
420
 12632256
100
AcDbLine
 10
2.249999999999999
 20
-3.60555127546399
 30
29.0
 11
2.249999999999998
 21
-3.605551275463997
 31
31.0
  0
ARC
  5
189
330
169
100
AcDbEntity
  8
Predefinito
 62
     9
420
 12632256
100
AcDbCircle
 10
0.000000000000016
 20
0.0000000000000155
 30
24.0
 40
4.249999999999979
100
AcDbArc
 50
28.07248693585288
 51
58.03428124920313
  0
LINE
  5
18A
330
169
100
AcDbEntity
  8
Predefinito
 62
     9
420
 12632256
100
AcDbLine
 10
3.75
 20
2.0
 30
24.0
 11
3.75
 21
2.0
 31
21.0
  0
ARC
  5
18B
330
169
100
AcDbEntity
  8
Predefinito
 62
     9
420
 12632256
100
AcDbCircle
 10
-0.0000000000000262
 20
-0.0000000000000235
 30
21.0
 40
4.250000000000035
100
AcDbArc
 50
28.07248693585307
 51
58.03428124920291
  0
LINE
  5
18C
330
169
100
AcDbEntity
  8
Predefinito
 62
     9
420
 12632256
100
AcDbLine
 10
2.25
 20
3.60555127546399
 30
21.0
 11
2.25
 21
3.60555127546399
 31
19.0
  0
ARC
  5
18D
330
169
100
AcDbEntity
  8
Predefinito
 62
     9
420
 12632256
100
AcDbCircle
 10
0.0000000000000023
 20
0.000000000000002
 30
18.99999999999999
 40
4.249999999999997
100
AcDbArc
 50
359.9999999999999
 51
58.03428124920306
  0
ARC
  5
18E
330
169
100
AcDbEntity
  8
Predefinito
 62
     9
420
 12632256
100
AcDbCircle
 10
-0.0000000000000002
 20
-0.0000000000000001
 30
18.99999999999999
 40
4.25
100
AcDbArc
 50
301.965718750797
 51
0.0000000000000101
  0
LINE
  5
18F
330
169
100
AcDbEntity
  8
Predefinito
 62
     9
420
 12632256
100
AcDbLine
 10
2.249999999999999
 20
-3.60555127546399
 30
19.0
 11
2.249999999999998
 21
-3.605551275463997
 31
21.0
  0
ARC
  5
190
330
169
100
AcDbEntity
  8
Predefinito
 62
     9
420
 12632256
100
AcDbCircle
 10
-0.0000000000000114
 20
0.0
 30
21.0
 40
4.250000000000011
100
AcDbArc
 50
301.965718750797
 51
0.0
  0
ARC
  5
191
330
169
100
AcDbEntity
  8
Predefinito
 62
     9
420
 12632256
100
AcDbCircle
 10
-0.0000000000000013
 20
0.0000000000000026
 30
24.0
 40
4.250000000000003
100
AcDbArc
 50
301.9657187507969
 51
359.9999999999999
  0
LINE
  5
192
330
169
100
AcDbEntity
  8
Predefinito
 62
     9
420
 12632256
100
AcDbLine
 10
2.249999999999999
 20
-3.60555127546399
 30
24.0
 11
2.249999999999998
 21
-3.605551275463997
 31
26.0
  0
ARC
  5
193
330
169
100
AcDbEntity
  8
Predefinito
 62
     9
420
 12632256
100
AcDbCircle
 10
-0.0000000000000094
 20
-0.0000000000000005
 30
26.0
 40
4.25000000000001
100
AcDbArc
 50
301.965718750797
 51
0.0000000000000064
  0
ARC
  5
194
330
169
100
AcDbEntity
  8
Predefinito
 62
     9
420
 12632256
100
AcDbCircle
 10
-0.0000000000000002
 20
-0.0000000000000004
 30
26.0
 40
4.25
100
AcDbArc
 50
0.0000000000000049
 51
58.03428124920306
  0
LINE
  5
195
330
169
100
AcDbEntity
  8
Predefinito
 62
     9
420
 12632256
100
AcDbLine
 10
2.249999999999999
 20
3.60555127546399
 30
26.0
 11
2.25
 21
3.60555127546399
 31
24.0
  0
LINE
  5
196
330
169
100
AcDbEntity
  8
Predefinito
 62
     9
420
 12632256
100
AcDbLine
 10
-3.75
 20
2.0
 30
21.0
 11
-3.75
 21
2.0
 31
24.0
  0
ARC
  5
197
330
169
100
AcDbEntity
  8
Predefinito
 62
     9
420
 12632256
100
AcDbCircle
 10
0.0000000000000018
 20
0.0
 30
24.0
 40
4.250000000000001
100
AcDbArc
 50
121.965718750797
 51
151.9275130641471
  0
LINE
  5
198
330
169
100
AcDbEntity
  8
Predefinito
 62
     9
420
 12632256
100
AcDbLine
 10
-2.249999999999999
 20
3.60555127546399
 30
24.0
 11
-2.249999999999999
 21
3.605551275463997
 31
26.0
  0
ARC
  5
199
330
169
100
AcDbEntity
  8
Predefinito
 62
     9
420
 12632256
100
AcDbCircle
 10
0.0000000000000018
 20
0.0000000000000033
 30
26.0
 40
4.250000000000004
100
AcDbArc
 50
121.9657187507969
 51
238.034281249203
  0
LINE
  5
19A
330
169
100
AcDbEntity
  8
Predefinito
 62
     9
420
 12632256
100
AcDbLine
 10
-2.25
 20
-3.60555127546399
 30
26.0
 11
-2.25
 21
-3.60555127546399
 31
24.0
  0
ARC
  5
19B
330
169
100
AcDbEntity
  8
Predefinito
 62
     9
420
 12632256
100
AcDbCircle
 10
0.0000000000000052
 20
0.0000000000000047
 30
24.0
 40
4.250000000000008
100
AcDbArc
 50
180.0
 51
238.034281249203
  0
LINE
  5
19C
330
169
100
AcDbEntity
  8
Predefinito
 62
     9
420
 12632256
100
AcDbLine
 10
-4.250000000000002
 20
0.0000000000000001
 30
24.0
 11
-4.25
 21
-0.0000000000000001
 31
21.0
  0
ARC
  5
19D
330
169
100
AcDbEntity
  8
Predefinito
 62
     9
420
 12632256
100
AcDbCircle
 10
0.0000000000000085
 20
0.000000000000004
 30
21.0
 40
4.250000000000009
100
AcDbArc
 50
180.0
 51
238.0342812492029
  0
LINE
  5
19E
330
169
100
AcDbEntity
  8
Predefinito
 62
     9
420
 12632256
100
AcDbLine
 10
-2.25
 20
-3.60555127546399
 30
21.0
 11
-2.25
 21
-3.60555127546399
 31
19.0
  0
ARC
  5
19F
330
169
100
AcDbEntity
  8
Predefinito
 62
     9
420
 12632256
100
AcDbCircle
 10
0.0000000000000016
 20
-0.0000000000000001
 30
19.0
 40
4.250000000000001
100
AcDbArc
 50
121.965718750797
 51
238.034281249203
  0
LINE
  5
1A0
330
169
100
AcDbEntity
  8
Predefinito
 62
     9
420
 12632256
100
AcDbLine
 10
-2.249999999999999
 20
3.60555127546399
 30
19.0
 11
-2.249999999999999
 21
3.605551275463997
 31
21.0
  0
ARC
  5
1A1
330
169
100
AcDbEntity
  8
Predefinito
 62
     9
420
 12632256
100
AcDbCircle
 10
0.0000000000000582
 20
-0.00000000000004
 30
21.0
 40
4.250000000000071
100
AcDbArc
 50
121.9657187507973
 51
151.9275130641469
  0
LINE
  5
1A2
330
169
100
AcDbEntity
  8
Predefinito
 62
     9
420
 12632256
100
AcDbLine
 10
4.25
 20
0.0
 30
36.00000000000002
 11
4.25
 21
0.0
 31
38.00000000000001
  0
LINE
  5
1A3
330
169
100
AcDbEntity
  8
Predefinito
 62
     9
420
 12632256
100
AcDbLine
 10
4.25
 20
0.0
 30
30.99999999999999
 11
4.25
 21
0.0
 31
34.0
  0
LINE
  5
1A4
330
169
100
AcDbEntity
  8
Predefinito
 62
     9
420
 12632256
100
AcDbLine
 10
4.25
 20
0.0
 30
26.0
 11
4.25
 21
0.0
 31
29.0
  0
LINE
  5
1A5
330
169
100
AcDbEntity
  8
Predefinito
 62
     9
420
 12632256
100
AcDbLine
 10
4.25
 20
-0.0000000000000001
 30
21.0
 11
4.250000000000002
 21
0.0000000000000001
 31
24.0
  0
LINE
  5
1A6
330
169
100
AcDbEntity
  8
Predefinito
 62
     9
420
 12632256
100
AcDbLine
 10
4.25
 20
-0.0000000000000002
 30
1.000000000000003
 11
4.25
 21
0.0
 31
19.0
  0
LINE
  5
1A7
330
169
100
AcDbEntity
  8
Predefinito
 62
     9
420
 12632256
100
AcDbLine
 10
-0.4999999999999981
 20
3.054648712554317
 30
40.0
 11
-0.4999999999999973
 21
-3.054648712554318
 31
40.0
  0
LINE
  5
1A8
330
169
100
AcDbEntity
  8
Predefinito
 62
     9
420
 12632256
100
AcDbLine
 10
-0.4999999999999925
 20
-2.958039891549809
 30
17.0
 11
-0.4999999999999922
 21
2.958039891549809
 31
17.0
  0
ARC
  5
1A9
330
169
100
AcDbEntity
  8
Predefinito
 62
     9
420
 12632256
100
AcDbCircle
 10
0.0000000000000004
 20
-0.0000000000000009
 30
40.0
 40
3.095299461620758
100
AcDbArc
 50
99.2960193767565
 51
260.7039806232435
  0
LINE
  5
1AA
330
169
100
AcDbEntity
  8
Predefinito
 62
     9
420
 12632256
100
AcDbLine
 10
0.5000000000000019
 20
-3.054648712554317
 30
40.0
 11
0.5000000000000013
 21
3.054648712554317
 31
40.0
  0
LINE
  5
1AB
330
169
100
AcDbEntity
  8
Predefinito
 62
     9
420
 12632256
100
AcDbLine
 10
0.500000000000003
 20
2.958039891549809
 30
17.0
 11
0.5000000000000033
 21
-2.958039891549809
 31
17.0
  0
ARC
  5
1AC
330
169
100
AcDbEntity
  8
Predefinito
 62
     9
420
 12632256
100
AcDbCircle
 10
0.0
 20
0.0
 30
0.0000000000000016
 40
3.0
100
AcDbArc
 50
0.0
 51
90.0
  0
ARC
  5
1AD
330
169
100
AcDbEntity
  8
Predefinito
 62
     9
420
 12632256
100
AcDbCircle
 10
0.0
 20
0.0
 30
-0.0000000000000001
 40
3.0
100
AcDbArc
 50
90.00000000000001
 51
270.0
  0
ARC
  5
1AE
330
169
100
AcDbEntity
  8
Predefinito
 62
     9
420
 12632256
100
AcDbCircle
 10
0.0000000000000237
 20
-0.0000000000001972
 30
8.00000000000007
 40
3.000000000000198
100
AcDbArc
 50
80.4059317731406
 51
99.59406822686013
  0
LINE
  5
1AF
330
169
100
AcDbEntity
  8
Predefinito
 62
     9
420
 12632256
100
AcDbLine
 10
-0.4999999999999922
 20
2.958039891549809
 30
17.0
 11
-0.499999999999992
 21
2.958039891549809
 31
7.999999999999998
  0
ARC
  5
1B0
330
169
100
AcDbEntity
  8
Predefinito
 62
     9
420
 12632256
100
AcDbCircle
 10
-0.0000000000000002
 20
-0.0000000000000001
 30
17.0
 40
3.0
100
AcDbArc
 50
99.5940682268603
 51
260.4059317731396
  0
LINE
  5
1B1
330
169
100
AcDbEntity
  8
Predefinito
 62
     9
420
 12632256
100
AcDbLine
 10
-0.4999999999999927
 20
-2.958039891549809
 30
8.0
 11
-0.4999999999999925
 21
-2.958039891549809
 31
17.0
  0
ARC
  5
1B2
330
169
100
AcDbEntity
  8
Predefinito
 62
     9
420
 12632256
100
AcDbCircle
 10
0.0000000000000234
 20
0.0000000000000941
 30
8.0000000000001
 40
3.000000000000097
100
AcDbArc
 50
260.4059317731396
 51
279.5940682268597
  0
LINE
  5
1B3
330
169
100
AcDbEntity
  8
Predefinito
 62
     9
420
 12632256
100
AcDbLine
 10
0.5000000000000033
 20
-2.958039891549809
 30
17.0
 11
0.5000000000000027
 21
-2.958039891549816
 31
8.0
  0
ARC
  5
1B4
330
169
100
AcDbEntity
  8
Predefinito
 62
     9
420
 12632256
100
AcDbCircle
 10
0.0000000000000003
 20
-0.0000000000000023
 30
17.0
 40
3.0
100
AcDbArc
 50
279.5940682268605
 51
0.0000000000000435
  0
ARC
  5
1B5
330
169
100
AcDbEntity
  8
Predefinito
 62
     9
420
 12632256
100
AcDbCircle
 10
0.0000000000000007
 20
0.0000000000000016
 30
17.0
 40
3.0
100
AcDbArc
 50
0.0
 51
80.40593177313949
  0
LINE
  5
1B6
330
169
100
AcDbEntity
  8
Predefinito
 62
     9
420
 12632256
100
AcDbLine
 10
0.5000000000000026
 20
2.958039891549816
 30
8.0
 11
0.500000000000003
 21
2.958039891549809
 31
17.0
  0
LINE
  5
1B7
330
169
100
AcDbEntity
  8
Predefinito
 62
     9
420
 12632256
100
AcDbLine
 10
3.0
 20
0.0
 30
0.0000000000000013
 11
3.0
 21
0.0
 31
17.0
  0
ARC
  5
1B8
330
169
100
AcDbEntity
  8
Predefinito
 62
     9
420
 12632256
100
AcDbCircle
 10
0.0000000000000003
 20
-0.0000000000000003
 30
0.0000000000000018
 40
3.0
100
AcDbArc
 50
270.0
 51
0.0000000000000064
  0
ARC
  5
1B9
330
169
100
AcDbEntity
  8
Predefinito
 62
     9
420
 12632256
100
AcDbCircle
 10
-0.0000000000000007
 20
0.0000000000000002
 30
40.0
 40
3.095299461620757
100
AcDbArc
 50
279.2960193767566
 51
80.70398062324345
  0
ARC
  5
1BA
330
169
100
AcDbEntity
  8
Predefinito
 62
     9
420
 12632256
100
AcDbCircle
 10
0.0
 20
0.0
 30
1.0
 40
5.25
100
AcDbArc
 50
180.0
 51
0.0
  0
ARC
  5
1BB
330
169
100
AcDbEntity
  8
Predefinito
 62
     9
420
 12632256
100
AcDbCircle
 10
0.0
 20
0.0
 30
1.0
 40
5.25
100
AcDbArc
 50
0.000000000000007
 51
180.0
  0
ARC
  5
1BC
330
169
100
AcDbEntity
  8
Predefinito
 62
     9
420
 12632256
100
AcDbCircle
 10
0.0
 20
0.0
 30
0.0
 40
5.25
100
AcDbArc
 50
0.0
 51
180.0
  0
ARC
  5
1BD
330
169
100
AcDbEntity
  8
Predefinito
 62
     9
420
 12632256
100
AcDbCircle
 10
0.0
 20
0.0
 30
0.0
 40
5.25
100
AcDbArc
 50
180.0
 51
0.0
  0
LINE
  5
1BE
330
169
100
AcDbEntity
  8
Predefinito
 62
     9
420
 12632256
100
AcDbLine
 10
5.25
 20
-0.0000000000000003
 30
0.0
 11
5.25
 21
-0.0000000000000003
 31
1.0
  0
SPLINE
  5
1BF
330
169
100
AcDbEntity
  8
Predefinito
 62
     9
420
 12632256
100
AcDbSpline
210
-1.0
220
-2.620968340613645E-14
230
-1.541688775823663E-14
 70
     8
 71
     3
 72
     8
 73
     4
 74
     0
 42
0.000000001
 43
0.0000000001
 40
0.0021938278312304
 40
0.0021938278312304
 40
0.0021938278312304
 40
0.0021938278312304
 40
0.0045088167574876
 40
0.0045088167574876
 40
0.0045088167574876
 40
0.0045088167574876
 10
-0.4999999999999978
 20
4.220485754033531
 30
38.0
 10
-0.4999999999999978
 20
3.832635948344413
 30
38.6671104045987
 10
-0.499999999999998
 20
3.444311074948486
 30
39.33394868887311
 10
-0.4999999999999981
 20
3.054648712554317
 30
40.0
  0
SPLINE
  5
1C0
330
169
100
AcDbEntity
  8
Predefinito
 62
     9
420
 12632256
100
AcDbSpline
210
1.0
220
1.297653407690891E-14
230
-7.925084531441996E-15
 70
     8
 71
     3
 72
     8
 73
     4
 74
     0
 42
0.000000001
 43
0.0000000001
 40
-0.0068415527474579
 40
-0.0068415527474579
 40
-0.0068415527474579
 40
-0.0068415527474579
 40
-0.0045265542674826
 40
-0.0045265542674826
 40
-0.0045265542674826
 40
-0.0045265542674826
 10
-0.4999999999999973
 20
-3.054648712554318
 30
40.0
 10
-0.4999999999999976
 20
-3.444308593670146
 30
39.33395293013128
 10
-0.4999999999999978
 20
-3.832634202400363
 30
38.6671134076618
 10
-0.4999999999999981
 20
-4.220485754033531
 30
38.0
  0
LINE
  5
1C1
330
169
100
AcDbEntity
  8
Predefinito
 62
     9
420
 12632256
100
AcDbLine
 10
-0.4999999999999929
 20
-4.220485754033531
 30
8.0
 11
-0.4999999999999927
 21
-2.958039891549809
 31
8.0
  0
LINE
  5
1C2
330
169
100
AcDbEntity
  8
Predefinito
 62
     9
420
 12632256
100
AcDbLine
 10
0.5000000000000027
 20
-2.958039891549816
 30
8.0
 11
0.5000000000000014
 21
-4.220485754033544
 31
8.0
  0
SPLINE
  5
1C3
330
169
100
AcDbEntity
  8
Predefinito
 62
     9
420
 12632256
100
AcDbSpline
210
1.0
220
2.624605595465521E-14
230
-1.535482326356782E-14
 70
     8
 71
     3
 72
     8
 73
     4
 74
     0
 42
0.000000001
 43
0.0000000001
 40
-0.005895895784237
 40
-0.005895895784237
 40
-0.005895895784237
 40
-0.005895895784237
 40
-0.0035809593205758
 40
-0.0035809593205758
 40
-0.0035809593205758
 40
-0.0035809593205758
 10
0.5000000000000018
 20
-4.22048575403353
 30
38.0
 10
0.5000000000000019
 20
-3.832635389390283
 30
38.6671113660124
 10
0.5000000000000019
 20
-3.444311240364345
 30
39.33394840612721
 10
0.5000000000000019
 20
-3.054648712554317
 30
40.0
  0
SPLINE
  5
1C4
330
169
100
AcDbEntity
  8
Predefinito
 62
     9
420
 12632256
100
AcDbSpline
210
-1.0
220
5.263717443865155E-14
230
3.046113925476636E-14
 70
     8
 71
     3
 72
     8
 73
     4
 74
     0
 42
0.000000001
 43
0.0000000001
 40
0.0040504749826659
 40
0.0040504749826659
 40
0.0040504749826659
 40
0.0040504749826659
 40
0.0063653300102634
 40
0.0063653300102634
 40
0.0063653300102634
 40
0.0063653300102634
 10
0.5000000000000013
 20
3.054648712554317
 30
40.0
 10
0.5000000000000016
 20
3.444312132202335
 30
39.3339468817052
 10
0.5000000000000017
 20
3.832636002121693
 30
38.6671103121006
 10
0.5000000000000018
 20
4.22048575403353
 30
38.0
  0
LINE
  5
1C5
330
169
100
AcDbEntity
  8
Predefinito
 62
     9
420
 12632256
100
AcDbLine
 10
0.5000000000000023
 20
4.220485754033544
 30
8.0
 11
0.5000000000000026
 21
2.958039891549816
 31
8.0
  0
LINE
  5
1C6
330
169
100
AcDbEntity
  8
Predefinito
 62
     9
420
 12632256
100
AcDbLine
 10
-0.499999999999992
 20
2.958039891549809
 30
7.999999999999998
 11
-0.4999999999999927
 21
4.220485754033531
 31
8.0
  0
LINE
  5
1C7
330
169
100
AcDbEntity
  8
Predefinito
 62
     9
420
 12632256
100
AcDbLine
 10
2.249999999999998
 20
-3.605551275463997
 30
36.0
 11
2.249999999999999
 21
3.60555127546399
 31
36.0
  0
LINE
  5
1C8
330
169
100
AcDbEntity
  8
Predefinito
 62
     9
420
 12632256
100
AcDbLine
 10
2.25
 20
3.60555127546399
 30
34.0
 11
2.249999999999999
 21
-3.60555127546399
 31
34.0
  0
LINE
  5
1C9
330
169
100
AcDbEntity
  8
Predefinito
 62
     9
420
 12632256
100
AcDbLine
 10
-2.249999999999999
 20
3.605551275463997
 30
36.0
 11
-2.25
 21
-3.60555127546399
 31
36.0
  0
LINE
  5
1CA
330
169
100
AcDbEntity
  8
Predefinito
 62
     9
420
 12632256
100
AcDbLine
 10
-2.25
 20
-3.60555127546399
 30
34.0
 11
-2.249999999999999
 21
3.60555127546399
 31
34.0
  0
LINE
  5
1CB
330
169
100
AcDbEntity
  8
Predefinito
 62
     9
420
 12632256
100
AcDbLine
 10
2.249999999999998
 20
-3.605551275463997
 30
31.0
 11
2.249999999999999
 21
3.60555127546399
 31
31.0
  0
LINE
  5
1CC
330
169
100
AcDbEntity
  8
Predefinito
 62
     9
420
 12632256
100
AcDbLine
 10
2.25
 20
3.60555127546399
 30
29.0
 11
2.249999999999999
 21
-3.60555127546399
 31
29.0
  0
LINE
  5
1CD
330
169
100
AcDbEntity
  8
Predefinito
 62
     9
420
 12632256
100
AcDbLine
 10
-2.249999999999999
 20
3.605551275463997
 30
31.0
 11
-2.25
 21
-3.60555127546399
 31
31.0
  0
LINE
  5
1CE
330
169
100
AcDbEntity
  8
Predefinito
 62
     9
420
 12632256
100
AcDbLine
 10
-2.25
 20
-3.60555127546399
 30
29.0
 11
-2.249999999999999
 21
3.60555127546399
 31
29.0
  0
LINE
  5
1CF
330
169
100
AcDbEntity
  8
Predefinito
 62
     9
420
 12632256
100
AcDbLine
 10
2.249999999999998
 20
-3.605551275463997
 30
26.0
 11
2.249999999999999
 21
3.60555127546399
 31
26.0
  0
LINE
  5
1D0
330
169
100
AcDbEntity
  8
Predefinito
 62
     9
420
 12632256
100
AcDbLine
 10
2.249999999999999
 20
-3.60555127546399
 30
24.0
 11
2.25
 21
3.60555127546399
 31
24.0
  0
LINE
  5
1D1
330
169
100
AcDbEntity
  8
Predefinito
 62
     9
420
 12632256
100
AcDbLine
 10
4.250000000000002
 20
0.0000000000000001
 30
24.0
 11
4.250000000000002
 21
2.0
 31
24.0
  0
LINE
  5
1D2
330
169
100
AcDbEntity
  8
Predefinito
 62
     9
420
 12632256
100
AcDbLine
 10
4.250000000000002
 20
2.0
 30
24.0
 11
3.75
 21
2.0
 31
24.0
  0
LINE
  5
1D3
330
169
100
AcDbEntity
  8
Predefinito
 62
     9
420
 12632256
100
AcDbLine
 10
-2.249999999999999
 20
3.605551275463997
 30
26.0
 11
-2.25
 21
-3.60555127546399
 31
26.0
  0
LINE
  5
1D4
330
169
100
AcDbEntity
  8
Predefinito
 62
     9
420
 12632256
100
AcDbLine
 10
-4.250000000000002
 20
2.0
 30
24.0
 11
-3.75
 21
2.0
 31
24.0
  0
LINE
  5
1D5
330
169
100
AcDbEntity
  8
Predefinito
 62
     9
420
 12632256
100
AcDbLine
 10
-4.250000000000002
 20
0.0000000000000001
 30
24.0
 11
-4.250000000000002
 21
2.0
 31
24.0
  0
LINE
  5
1D6
330
169
100
AcDbEntity
  8
Predefinito
 62
     9
420
 12632256
100
AcDbLine
 10
-2.249999999999999
 20
3.60555127546399
 30
24.0
 11
-2.25
 21
-3.60555127546399
 31
24.0
  0
LINE
  5
1D7
330
169
100
AcDbEntity
  8
Predefinito
 62
     9
420
 12632256
100
AcDbLine
 10
3.75
 20
2.0
 30
21.0
 11
4.25
 21
2.0
 31
21.0
  0
LINE
  5
1D8
330
169
100
AcDbEntity
  8
Predefinito
 62
     9
420
 12632256
100
AcDbLine
 10
4.25
 20
2.0
 30
21.0
 11
4.25
 21
-0.0000000000000001
 31
21.0
  0
LINE
  5
1D9
330
169
100
AcDbEntity
  8
Predefinito
 62
     9
420
 12632256
100
AcDbLine
 10
2.249999999999998
 20
-3.605551275463997
 30
21.0
 11
2.25
 21
3.60555127546399
 31
21.0
  0
LINE
  5
1DA
330
169
100
AcDbEntity
  8
Predefinito
 62
     9
420
 12632256
100
AcDbLine
 10
2.25
 20
3.60555127546399
 30
19.0
 11
2.249999999999999
 21
-3.60555127546399
 31
19.0
  0
LINE
  5
1DB
330
169
100
AcDbEntity
  8
Predefinito
 62
     9
420
 12632256
100
AcDbLine
 10
-4.25
 20
2.0
 30
21.0
 11
-4.25
 21
-0.0000000000000001
 31
21.0
  0
LINE
  5
1DC
330
169
100
AcDbEntity
  8
Predefinito
 62
     9
420
 12632256
100
AcDbLine
 10
-3.75
 20
2.0
 30
21.0
 11
-4.25
 21
2.0
 31
21.0
  0
LINE
  5
1DD
330
169
100
AcDbEntity
  8
Predefinito
 62
     9
420
 12632256
100
AcDbLine
 10
-2.249999999999999
 20
3.605551275463997
 30
21.0
 11
-2.25
 21
-3.60555127546399
 31
21.0
  0
LINE
  5
1DE
330
169
100
AcDbEntity
  8
Predefinito
 62
     9
420
 12632256
100
AcDbLine
 10
-2.25
 20
-3.60555127546399
 30
19.0
 11
-2.249999999999999
 21
3.60555127546399
 31
19.0
  0
LINE
  5
1DF
330
169
100
AcDbEntity
  8
Predefinito
 62
     9
420
 12632256
100
AcDbLine
 10
-7.0
 20
2.0
 30
17.7368602791856
 11
-6.999999999999997
 21
2.0
 31
16.2368602791856
  0
LINE
  5
1E0
330
169
100
AcDbEntity
  8
Predefinito
 62
     9
420
 12632256
100
AcDbLine
 10
-7.0
 20
0.0
 30
17.7368602791856
 11
-6.999999999999997
 21
0.0
 31
16.2368602791856
  0
LINE
  5
1E1
330
169
100
AcDbEntity
  8
Predefinito
 62
     9
420
 12632256
100
AcDbLine
 10
-6.999999999999997
 20
0.0
 30
16.2368602791856
 11
-4.25
 21
-0.0000000000000001
 31
21.0
  0
LINE
  5
1E2
330
169
100
AcDbEntity
  8
Predefinito
 62
     9
420
 12632256
100
AcDbLine
 10
-6.999999999999997
 20
2.0
 30
16.2368602791856
 11
-4.25
 21
2.0
 31
21.0
  0
LINE
  5
1E3
330
169
100
AcDbEntity
  8
Predefinito
 62
     9
420
 12632256
100
AcDbLine
 10
-6.999999999999997
 20
0.0
 30
16.2368602791856
 11
-6.999999999999997
 21
2.0
 31
16.2368602791856
  0
LINE
  5
1E4
330
169
100
AcDbEntity
  8
Predefinito
 62
     9
420
 12632256
100
AcDbLine
 10
-4.250000000000002
 20
0.0000000000000001
 30
24.0
 11
-7.0
 21
0.0
 31
17.7368602791856
  0
LINE
  5
1E5
330
169
100
AcDbEntity
  8
Predefinito
 62
     9
420
 12632256
100
AcDbLine
 10
-4.250000000000002
 20
2.0
 30
24.0
 11
-7.0
 21
2.0
 31
17.7368602791856
  0
LINE
  5
1E6
330
169
100
AcDbEntity
  8
Predefinito
 62
     9
420
 12632256
100
AcDbLine
 10
-7.0
 20
0.0
 30
17.7368602791856
 11
-7.0
 21
2.0
 31
17.7368602791856
  0
LINE
  5
1E7
330
169
100
AcDbEntity
  8
Predefinito
 62
     9
420
 12632256
100
AcDbLine
 10
7.0
 20
2.0
 30
17.7368602791856
 11
6.999999999999997
 21
2.0
 31
16.2368602791856
  0
LINE
  5
1E8
330
169
100
AcDbEntity
  8
Predefinito
 62
     9
420
 12632256
100
AcDbLine
 10
7.0
 20
0.0
 30
17.7368602791856
 11
6.999999999999997
 21
0.0
 31
16.2368602791856
  0
LINE
  5
1E9
330
169
100
AcDbEntity
  8
Predefinito
 62
     9
420
 12632256
100
AcDbLine
 10
6.999999999999997
 20
0.0
 30
16.2368602791856
 11
4.25
 21
-0.0000000000000001
 31
21.0
  0
LINE
  5
1EA
330
169
100
AcDbEntity
  8
Predefinito
 62
     9
420
 12632256
100
AcDbLine
 10
6.999999999999997
 20
2.0
 30
16.2368602791856
 11
4.25
 21
2.0
 31
21.0
  0
LINE
  5
1EB
330
169
100
AcDbEntity
  8
Predefinito
 62
     9
420
 12632256
100
AcDbLine
 10
6.999999999999997
 20
0.0
 30
16.2368602791856
 11
6.999999999999997
 21
2.0
 31
16.2368602791856
  0
LINE
  5
1EC
330
169
100
AcDbEntity
  8
Predefinito
 62
     9
420
 12632256
100
AcDbLine
 10
4.250000000000002
 20
0.0000000000000001
 30
24.0
 11
7.0
 21
0.0
 31
17.7368602791856
  0
LINE
  5
1ED
330
169
100
AcDbEntity
  8
Predefinito
 62
     9
420
 12632256
100
AcDbLine
 10
7.0
 20
0.0
 30
17.7368602791856
 11
7.0
 21
2.0
 31
17.7368602791856
  0
LINE
  5
1EE
330
169
100
AcDbEntity
  8
Predefinito
 62
     9
420
 12632256
100
AcDbLine
 10
4.250000000000002
 20
2.0
 30
24.0
 11
7.0
 21
2.0
 31
17.7368602791856
  0
ARC
  5
1EF
330
169
100
AcDbEntity
  8
Predefinito
 62
     9
420
 12632256
100
AcDbCircle
 10
0.0
 20
0.0
 30
19.5
 40
4.25
100
AcDbArc
 50
58.03428124920304
 51
83.24367296941216
  0
ARC
  5
1F0
330
169
100
AcDbEntity
  8
Predefinito
 62
     9
420
 12632256
100
AcDbCircle
 10
0.0
 20
0.0
 30
19.5
 40
4.25
100
AcDbArc
 50
96.75632703058774
 51
121.9657187507969
  0
ARC
  5
1F1
330
169
100
AcDbEntity
  8
Predefinito
 62
     9
420
 12632256
100
AcDbCircle
 10
0.0
 20
0.0
 30
19.5
 40
4.25
100
AcDbArc
 50
238.034281249203
 51
263.2436729694122
  0
ARC
  5
1F2
330
169
100
AcDbEntity
  8
Predefinito
 62
     9
420
 12632256
100
AcDbCircle
 10
0.0
 20
0.0
 30
19.5
 40
4.25
100
AcDbArc
 50
276.7563270305878
 51
301.965718750797
  0
LINE
  5
1F3
330
169
100
AcDbEntity
  8
Predefinito
 62
     9
420
 12632256
100
AcDbLine
 10
0.0
 20
4.25
 30
1.000000000000002
 11
0.0
 21
4.25
 31
8.000000000000004
  0
LINE
  5
1F4
330
169
100
AcDbEntity
  8
Predefinito
 62
     9
420
 12632256
100
AcDbLine
 10
-4.25
 20
0.0
 30
1.000000000000001
 11
-4.25
 21
0.0
 31
19.0
  0
LINE
  5
1F5
330
169
100
AcDbEntity
  8
Predefinito
 62
     9
420
 12632256
100
AcDbLine
 10
-4.25
 20
0.0
 30
26.0
 11
-4.25
 21
0.0
 31
29.0
  0
LINE
  5
1F6
330
169
100
AcDbEntity
  8
Predefinito
 62
     9
420
 12632256
100
AcDbLine
 10
-4.25
 20
0.0
 30
30.99999999999999
 11
-4.25
 21
0.0
 31
33.99999999999999
  0
LINE
  5
1F7
330
169
100
AcDbEntity
  8
Predefinito
 62
     9
420
 12632256
100
AcDbLine
 10
-4.25
 20
0.0
 30
36.00000000000001
 11
-4.25
 21
0.0
 31
38.00000000000001
  0
LINE
  5
1F8
330
169
100
AcDbEntity
  8
Predefinito
 62
     9
420
 12632256
100
AcDbLine
 10
0.0
 20
-4.25
 30
1.000000000000001
 11
0.0
 21
-4.25
 31
8.000000000000004
  0
LINE
  5
1F9
330
169
100
AcDbEntity
  8
Predefinito
 62
     9
420
 12632256
100
AcDbLine
 10
-0.4999999999999982
 20
-0.0000000000000004
 30
40.0
 11
-3.095299461620759
 21
-0.0000000000000004
 31
40.0
  0
LINE
  5
1FA
330
169
100
AcDbEntity
  8
Predefinito
 62
     9
420
 12632256
100
AcDbLine
 10
-1.797649730810379
 20
-2.519788264129273
 30
40.0
 11
-1.797649730810379
 21
2.519788523354119
 31
40.0
  0
LINE
  5
1FB
330
169
100
AcDbEntity
  8
Predefinito
 62
     9
420
 12632256
100
AcDbLine
 10
-3.0
 20
0.0
 30
17.0
 11
-0.499999999999991
 21
0.0
 31
17.0
  0
LINE
  5
1FC
330
169
100
AcDbEntity
  8
Predefinito
 62
     9
420
 12632256
100
AcDbLine
 10
-1.749999999999995
 20
-2.436698586202245
 30
17.0
 11
-1.749999999999995
 21
2.436698586202245
 31
17.0
  0
LINE
  5
1FD
330
169
100
AcDbEntity
  8
Predefinito
 62
     9
420
 12632256
100
AcDbLine
 10
-3.095299461620752
 20
0.0
 30
40.0
 11
-4.249999999999999
 21
0.0
 31
38.0
  0
LINE
  5
1FE
330
169
100
AcDbEntity
  8
Predefinito
 62
     9
420
 12632256
100
AcDbLine
 10
3.095299461620759
 20
0.0
 30
40.0
 11
0.5000000000000018
 21
0.0
 31
40.0
  0
LINE
  5
1FF
330
169
100
AcDbEntity
  8
Predefinito
 62
     9
420
 12632256
100
AcDbLine
 10
1.79764973081038
 20
-2.519788523354119
 30
40.0
 11
1.79764973081038
 21
2.519788523354118
 31
40.0
  0
LINE
  5
200
330
169
100
AcDbEntity
  8
Predefinito
 62
     9
420
 12632256
100
AcDbLine
 10
0.5000000000000038
 20
0.0
 30
17.0
 11
3.000000000000001
 21
0.0
 31
17.0
  0
LINE
  5
201
330
169
100
AcDbEntity
  8
Predefinito
 62
     9
420
 12632256
100
AcDbLine
 10
1.750000000000003
 20
-2.436698586202242
 30
17.0
 11
1.750000000000003
 21
2.436698336206478
 31
17.0
  0
ARC
  5
202
330
169
100
AcDbEntity
  8
Predefinito
 62
     9
420
 12632256
100
AcDbCircle
 10
0.0
 20
0.0
 30
8.5
 40
3.0
100
AcDbArc
 50
0.0
 51
80.4059317731395
  0
ARC
  5
203
330
169
100
AcDbEntity
  8
Predefinito
 62
     9
420
 12632256
100
AcDbCircle
 10
0.0
 20
0.0
 30
8.5
 40
3.0
100
AcDbArc
 50
99.59406822686029
 51
260.4059317731396
  0
ARC
  5
204
330
169
100
AcDbEntity
  8
Predefinito
 62
     9
420
 12632256
100
AcDbCircle
 10
0.0
 20
0.0
 30
8.5
 40
3.0
100
AcDbArc
 50
279.5940682268604
 51
0.0
  0
LINE
  5
205
330
169
100
AcDbEntity
  8
Predefinito
 62
     9
420
 12632256
100
AcDbLine
 10
0.0
 20
3.0
 30
-0.0000000000000009
 11
0.0
 21
3.0
 31
7.999999999999998
  0
LINE
  5
206
330
169
100
AcDbEntity
  8
Predefinito
 62
     9
420
 12632256
100
AcDbLine
 10
-3.0
 20
0.0
 30
-0.0000000000000002
 11
-3.0
 21
0.0
 31
17.0
  0
LINE
  5
207
330
169
100
AcDbEntity
  8
Predefinito
 62
     9
420
 12632256
100
AcDbLine
 10
0.0
 20
-3.0
 30
0.0
 11
0.0
 21
-3.0
 31
7.999999999999998
  0
LINE
  5
208
330
169
100
AcDbEntity
  8
Predefinito
 62
     9
420
 12632256
100
AcDbLine
 10
3.09529946162075
 20
0.0
 30
40.0
 11
4.249999999999996
 21
0.0
 31
38.0
  0
LINE
  5
209
330
169
100
AcDbEntity
  8
Predefinito
 62
     9
420
 12632256
100
AcDbLine
 10
-5.249999999999999
 20
0.0
 30
0.0
 11
-3.0
 21
0.0
 31
0.0
  0
LINE
  5
20A
330
169
100
AcDbEntity
  8
Predefinito
 62
     9
420
 12632256
100
AcDbLine
 10
3.0
 20
0.0
 30
0.0
 11
5.25
 21
0.0
 31
0.0
  0
LINE
  5
20B
330
169
100
AcDbEntity
  8
Predefinito
 62
     9
420
 12632256
100
AcDbLine
 10
0.0
 20
-5.249999999999999
 30
0.0
 11
0.0
 21
-3.0
 31
0.0
  0
LINE
  5
20C
330
169
100
AcDbEntity
  8
Predefinito
 62
     9
420
 12632256
100
AcDbLine
 10
0.0
 20
3.0
 30
0.0
 11
0.0
 21
5.25
 31
0.0
  0
CIRCLE
  5
20D
330
169
100
AcDbEntity
  8
Predefinito
 62
     9
420
 12632256
100
AcDbCircle
 10
0.0
 20
0.0
 30
0.4999999999999999
 40
5.25
  0
LINE
  5
20E
330
169
100
AcDbEntity
  8
Predefinito
 62
     9
420
 12632256
100
AcDbLine
 10
0.0
 20
5.25
 30
0.0
 11
0.0
 21
5.25
 31
1.0
  0
LINE
  5
20F
330
169
100
AcDbEntity
  8
Predefinito
 62
     9
420
 12632256
100
AcDbLine
 10
-5.25
 20
0.0
 30
0.0
 11
-5.25
 21
0.0
 31
1.0
  0
LINE
  5
210
330
169
100
AcDbEntity
  8
Predefinito
 62
     9
420
 12632256
100
AcDbLine
 10
0.0
 20
-5.25
 30
0.0
 11
0.0
 21
-5.25
 31
1.0
  0
LINE
  5
211
330
169
100
AcDbEntity
  8
Predefinito
 62
     9
420
 12632256
100
AcDbLine
 10
5.25
 20
0.0
 30
1.0
 11
4.25
 21
0.0
 31
1.0
  0
LINE
  5
212
330
169
100
AcDbEntity
  8
Predefinito
 62
     9
420
 12632256
100
AcDbLine
 10
-4.250000000000001
 20
0.0
 30
1.0
 11
-5.250000000000001
 21
0.0
 31
1.0
  0
LINE
  5
213
330
169
100
AcDbEntity
  8
Predefinito
 62
     9
420
 12632256
100
AcDbLine
 10
-0.0000000000000009
 20
-5.25
 30
1.0
 11
-0.0000000000000009
 21
-4.25
 31
1.0
  0
LINE
  5
214
330
169
100
AcDbEntity
  8
Predefinito
 62
     9
420
 12632256
100
AcDbLine
 10
-0.0000000000000009
 20
4.25
 30
1.0
 11
-0.0000000000000009
 21
5.25
 31
1.0
  0
LINE
  5
215
330
169
100
AcDbEntity
  8
Predefinito
 62
     9
420
 12632256
100
AcDbLine
 10
-0.499999999999998
 20
0.0
 30
40.0
 11
-0.4999999999999939
 21
0.0
 31
17.0
  0
LINE
  5
216
330
169
100
AcDbEntity
  8
Predefinito
 62
     9
420
 12632256
100
AcDbLine
 10
-0.4999999999999952
 20
-4.220485754033533
 30
24.0
 11
-0.4999999999999952
 21
4.220485754033533
 31
24.0
  0
LINE
  5
217
330
169
100
AcDbEntity
  8
Predefinito
 62
     9
420
 12632256
100
AcDbLine
 10
-0.4999999999999919
 20
-3.618880266679632
 30
8.0
 11
0.5000000000000031
 21
-3.618880266679632
 31
8.0
  0
LINE
  5
218
330
169
100
AcDbEntity
  8
Predefinito
 62
     9
420
 12632256
100
AcDbLine
 10
0.0000000000000055
 20
-4.25
 30
8.0
 11
0.0000000000000055
 21
-3.0
 31
8.0
  0
LINE
  5
219
330
169
100
AcDbEntity
  8
Predefinito
 62
     9
420
 12632256
100
AcDbLine
 10
0.5000000000000027
 20
0.0
 30
17.0
 11
0.5000000000000017
 21
0.0
 31
40.0
  0
LINE
  5
21A
330
169
100
AcDbEntity
  8
Predefinito
 62
     9
420
 12632256
100
AcDbLine
 10
0.5000000000000023
 20
-4.22048575403354
 30
24.0
 11
0.5000000000000023
 21
4.22048575403354
 31
24.0
  0
LINE
  5
21B
330
169
100
AcDbEntity
  8
Predefinito
 62
     9
420
 12632256
100
AcDbLine
 10
0.5000000000000029
 20
3.618880266679632
 30
8.0
 11
-0.4999999999999919
 21
3.618880266679632
 31
8.0
  0
LINE
  5
21C
330
169
100
AcDbEntity
  8
Predefinito
 62
     9
420
 12632256
100
AcDbLine
 10
0.0000000000000055
 20
3.0
 30
8.0
 11
0.0000000000000055
 21
4.25
 31
8.0
  0
LINE
  5
21D
330
169
100
AcDbEntity
  8
Predefinito
 62
     9
420
 12632256
100
AcDbLine
 10
4.250000000000004
 20
-0.0000000000000071
 30
36.0
 11
2.249999999999999
 21
-0.0000000000000071
 31
36.0
  0
LINE
  5
21E
330
169
100
AcDbEntity
  8
Predefinito
 62
     9
420
 12632256
100
AcDbLine
 10
3.250000000000002
 20
-2.73861278752586
 30
36.0
 11
3.250000000000002
 21
2.738612787525823
 31
36.0
  0
LINE
  5
21F
330
169
100
AcDbEntity
  8
Predefinito
 62
     9
420
 12632256
100
AcDbLine
 10
2.25
 20
-0.0000000000000071
 30
36.0
 11
2.25
 21
-0.0000000000000071
 31
34.0
  0
LINE
  5
220
330
169
100
AcDbEntity
  8
Predefinito
 62
     9
420
 12632256
100
AcDbLine
 10
2.25
 20
-3.605551275463995
 30
35.0
 11
2.25
 21
3.605551275463988
 31
35.0
  0
LINE
  5
221
330
169
100
AcDbEntity
  8
Predefinito
 62
     9
420
 12632256
100
AcDbLine
 10
2.25
 20
0.0
 30
34.0
 11
4.250000000000002
 21
0.0
 31
34.0
  0
LINE
  5
222
330
169
100
AcDbEntity
  8
Predefinito
 62
     9
420
 12632256
100
AcDbLine
 10
3.25
 20
-2.738612787525838
 30
34.0
 11
3.25
 21
2.738612787525831
 31
34.0
  0
LINE
  5
223
330
169
100
AcDbEntity
  8
Predefinito
 62
     9
420
 12632256
100
AcDbLine
 10
-4.250000000000004
 20
0.0000000000000071
 30
36.0
 11
-2.25
 21
0.0000000000000071
 31
36.0
  0
LINE
  5
224
330
169
100
AcDbEntity
  8
Predefinito
 62
     9
420
 12632256
100
AcDbLine
 10
-3.250000000000002
 20
-2.738612787525824
 30
36.0
 11
-3.250000000000002
 21
2.738612787525839
 31
36.0
  0
LINE
  5
225
330
169
100
AcDbEntity
  8
Predefinito
 62
     9
420
 12632256
100
AcDbLine
 10
-2.25
 20
0.0000000000000071
 30
36.0
 11
-2.25
 21
0.0000000000000071
 31
34.0
  0
LINE
  5
226
330
169
100
AcDbEntity
  8
Predefinito
 62
     9
420
 12632256
100
AcDbLine
 10
-2.25
 20
-3.605551275463988
 30
35.0
 11
-2.25
 21
3.605551275463995
 31
35.0
  0
LINE
  5
227
330
169
100
AcDbEntity
  8
Predefinito
 62
     9
420
 12632256
100
AcDbLine
 10
-2.25
 20
0.0
 30
34.0
 11
-4.250000000000002
 21
0.0
 31
34.0
  0
LINE
  5
228
330
169
100
AcDbEntity
  8
Predefinito
 62
     9
420
 12632256
100
AcDbLine
 10
-3.25
 20
-2.738612787525838
 30
34.0
 11
-3.25
 21
2.738612787525831
 31
34.0
  0
LINE
  5
229
330
169
100
AcDbEntity
  8
Predefinito
 62
     9
420
 12632256
100
AcDbLine
 10
4.250000000000004
 20
-0.0000000000000071
 30
31.0
 11
2.249999999999999
 21
-0.0000000000000071
 31
31.0
  0
LINE
  5
22A
330
169
100
AcDbEntity
  8
Predefinito
 62
     9
420
 12632256
100
AcDbLine
 10
3.250000000000002
 20
-2.73861278752586
 30
31.0
 11
3.250000000000002
 21
2.738612787525823
 31
31.0
  0
LINE
  5
22B
330
169
100
AcDbEntity
  8
Predefinito
 62
     9
420
 12632256
100
AcDbLine
 10
2.25
 20
-0.0000000000000071
 30
31.0
 11
2.25
 21
-0.0000000000000071
 31
29.0
  0
LINE
  5
22C
330
169
100
AcDbEntity
  8
Predefinito
 62
     9
420
 12632256
100
AcDbLine
 10
2.25
 20
-3.605551275463995
 30
30.0
 11
2.25
 21
3.605551275463988
 31
30.0
  0
LINE
  5
22D
330
169
100
AcDbEntity
  8
Predefinito
 62
     9
420
 12632256
100
AcDbLine
 10
2.25
 20
0.0
 30
29.0
 11
4.250000000000002
 21
0.0
 31
29.0
  0
LINE
  5
22E
330
169
100
AcDbEntity
  8
Predefinito
 62
     9
420
 12632256
100
AcDbLine
 10
3.25
 20
-2.738612787525838
 30
29.0
 11
3.25
 21
2.738612787525831
 31
29.0
  0
LINE
  5
22F
330
169
100
AcDbEntity
  8
Predefinito
 62
     9
420
 12632256
100
AcDbLine
 10
-4.250000000000004
 20
0.0000000000000071
 30
31.0
 11
-2.25
 21
0.0000000000000071
 31
31.0
  0
LINE
  5
230
330
169
100
AcDbEntity
  8
Predefinito
 62
     9
420
 12632256
100
AcDbLine
 10
-3.250000000000002
 20
-2.738612787525824
 30
31.0
 11
-3.250000000000002
 21
2.738612787525839
 31
31.0
  0
LINE
  5
231
330
169
100
AcDbEntity
  8
Predefinito
 62
     9
420
 12632256
100
AcDbLine
 10
-2.25
 20
0.0000000000000071
 30
31.0
 11
-2.25
 21
0.0000000000000071
 31
29.0
  0
LINE
  5
232
330
169
100
AcDbEntity
  8
Predefinito
 62
     9
420
 12632256
100
AcDbLine
 10
-2.25
 20
-3.605551275463988
 30
30.0
 11
-2.25
 21
3.605551275463995
 31
30.0
  0
LINE
  5
233
330
169
100
AcDbEntity
  8
Predefinito
 62
     9
420
 12632256
100
AcDbLine
 10
-2.25
 20
0.0
 30
29.0
 11
-4.250000000000002
 21
0.0
 31
29.0
  0
LINE
  5
234
330
169
100
AcDbEntity
  8
Predefinito
 62
     9
420
 12632256
100
AcDbLine
 10
-3.25
 20
-2.738612787525838
 30
29.0
 11
-3.25
 21
2.738612787525831
 31
29.0
  0
LINE
  5
235
330
169
100
AcDbEntity
  8
Predefinito
 62
     9
420
 12632256
100
AcDbLine
 10
4.250000000000004
 20
-0.0000000000000071
 30
26.0
 11
2.249999999999999
 21
-0.0000000000000071
 31
26.0
  0
LINE
  5
236
330
169
100
AcDbEntity
  8
Predefinito
 62
     9
420
 12632256
100
AcDbLine
 10
3.250000000000002
 20
-2.738612787525852
 30
26.0
 11
3.250000000000002
 21
2.738612787525816
 31
26.0
  0
LINE
  5
237
330
169
100
AcDbEntity
  8
Predefinito
 62
     9
420
 12632256
100
AcDbLine
 10
2.25
 20
-0.0000000000000071
 30
26.0
 11
2.25
 21
-0.0000000000000071
 31
24.0
  0
LINE
  5
238
330
169
100
AcDbEntity
  8
Predefinito
 62
     9
420
 12632256
100
AcDbLine
 10
2.25
 20
-3.605551275463995
 30
25.0
 11
2.25
 21
3.605551275463988
 31
25.0
  0
LINE
  5
239
330
169
100
AcDbEntity
  8
Predefinito
 62
     9
420
 12632256
100
AcDbLine
 10
2.25
 20
0.0
 30
24.0
 11
4.25
 21
0.0
 31
24.0
  0
LINE
  5
23A
330
169
100
AcDbEntity
  8
Predefinito
 62
     9
420
 12632256
100
AcDbLine
 10
3.25
 20
-2.738612787525831
 30
24.0
 11
3.25
 21
2.738612787525831
 31
24.0
  0
LINE
  5
23B
330
169
100
AcDbEntity
  8
Predefinito
 62
     9
420
 12632256
100
AcDbLine
 10
-4.250000000000004
 20
0.0000000000000071
 30
26.0
 11
-2.25
 21
0.0000000000000071
 31
26.0
  0
LINE
  5
23C
330
169
100
AcDbEntity
  8
Predefinito
 62
     9
420
 12632256
100
AcDbLine
 10
-3.250000000000002
 20
-2.738612787525824
 30
26.0
 11
-3.250000000000002
 21
2.738612787525839
 31
26.0
  0
LINE
  5
23D
330
169
100
AcDbEntity
  8
Predefinito
 62
     9
420
 12632256
100
AcDbLine
 10
-2.25
 20
0.0000000000000071
 30
26.0
 11
-2.25
 21
0.0000000000000071
 31
24.0
  0
LINE
  5
23E
330
169
100
AcDbEntity
  8
Predefinito
 62
     9
420
 12632256
100
AcDbLine
 10
-2.25
 20
-3.605551275463988
 30
25.0
 11
-2.25
 21
3.605551275463995
 31
25.0
  0
LINE
  5
23F
330
169
100
AcDbEntity
  8
Predefinito
 62
     9
420
 12632256
100
AcDbLine
 10
-2.25
 20
0.0
 30
24.0
 11
-4.25
 21
0.0
 31
24.0
  0
LINE
  5
240
330
169
100
AcDbEntity
  8
Predefinito
 62
     9
420
 12632256
100
AcDbLine
 10
-3.25
 20
-2.738612787525831
 30
24.0
 11
-3.25
 21
2.738612787525831
 31
24.0
  0
LINE
  5
241
330
169
100
AcDbEntity
  8
Predefinito
 62
     9
420
 12632256
100
AcDbLine
 10
4.25
 20
-0.0000000000000071
 30
21.0
 11
2.25
 21
-0.0000000000000071
 31
21.0
  0
LINE
  5
242
330
169
100
AcDbEntity
  8
Predefinito
 62
     9
420
 12632256
100
AcDbLine
 10
3.25
 20
-2.738612787525845
 30
21.0
 11
3.25
 21
2.738612787525838
 31
21.0
  0
LINE
  5
243
330
169
100
AcDbEntity
  8
Predefinito
 62
     9
420
 12632256
100
AcDbLine
 10
2.25
 20
-0.0000000000000071
 30
21.0
 11
2.25
 21
-0.0000000000000071
 31
19.0
  0
LINE
  5
244
330
169
100
AcDbEntity
  8
Predefinito
 62
     9
420
 12632256
100
AcDbLine
 10
2.25
 20
-3.605551275463995
 30
20.0
 11
2.25
 21
3.605551275463988
 31
20.0
  0
LINE
  5
245
330
169
100
AcDbEntity
  8
Predefinito
 62
     9
420
 12632256
100
AcDbLine
 10
2.25
 20
0.0
 30
19.0
 11
4.250000000000002
 21
0.0
 31
19.0
  0
LINE
  5
246
330
169
100
AcDbEntity
  8
Predefinito
 62
     9
420
 12632256
100
AcDbLine
 10
3.25
 20
-2.738612787525838
 30
19.0
 11
3.25
 21
2.738612787525831
 31
19.0
  0
LINE
  5
247
330
169
100
AcDbEntity
  8
Predefinito
 62
     9
420
 12632256
100
AcDbLine
 10
-4.25
 20
0.0000000000000071
 30
21.0
 11
-2.25
 21
0.0000000000000071
 31
21.0
  0
LINE
  5
248
330
169
100
AcDbEntity
  8
Predefinito
 62
     9
420
 12632256
100
AcDbLine
 10
-3.25
 20
-2.738612787525838
 30
21.0
 11
-3.25
 21
2.738612787525831
 31
21.0
  0
LINE
  5
249
330
169
100
AcDbEntity
  8
Predefinito
 62
     9
420
 12632256
100
AcDbLine
 10
-2.25
 20
0.0000000000000071
 30
21.0
 11
-2.25
 21
0.0000000000000071
 31
19.0
  0
LINE
  5
24A
330
169
100
AcDbEntity
  8
Predefinito
 62
     9
420
 12632256
100
AcDbLine
 10
-2.25
 20
-3.605551275463988
 30
20.0
 11
-2.25
 21
3.605551275463995
 31
20.0
  0
LINE
  5
24B
330
169
100
AcDbEntity
  8
Predefinito
 62
     9
420
 12632256
100
AcDbLine
 10
-2.25
 20
0.0
 30
19.0
 11
-4.250000000000002
 21
0.0
 31
19.0
  0
LINE
  5
24C
330
169
100
AcDbEntity
  8
Predefinito
 62
     9
420
 12632256
100
AcDbLine
 10
-3.25
 20
-2.738612787525838
 30
19.0
 11
-3.25
 21
2.738612787525831
 31
19.0
  0
LINE
  5
24D
330
169
100
AcDbEntity
  8
Predefinito
 62
     9
420
 12632256
100
AcDbLine
 10
-5.375
 20
2.0
 30
21.43780647784865
 11
-5.375
 21
2.0
 31
19.05144284148502
  0
LINE
  5
24E
330
169
100
AcDbEntity
  8
Predefinito
 62
     9
420
 12632256
100
AcDbLine
 10
-5.954307678247327
 20
2.0
 30
20.1184301395928
 11
-4.758974596215559
 21
2.0
 31
20.1184301395928
  0
LINE
  5
24F
330
169
100
AcDbEntity
  8
Predefinito
 62
     9
420
 12632256
100
AcDbLine
 10
-5.625
 20
0.0
 30
20.8684301395928
 11
-5.625
 21
0.0
 31
18.6184301395928
  0
LINE
  5
250
330
169
100
AcDbEntity
  8
Predefinito
 62
     9
420
 12632256
100
AcDbLine
 10
-5.954307678247327
 20
0.0
 30
20.1184301395928
 11
-4.758974596215559
 21
0.0
 31
20.1184301395928
  0
LINE
  5
251
330
169
100
AcDbEntity
  8
Predefinito
 62
     9
420
 12632256
100
AcDbLine
 10
-6.999999999999993
 20
1.0
 30
16.2368602791856
 11
-4.25
 21
1.0
 31
21.0
  0
LINE
  5
252
330
169
100
AcDbEntity
  8
Predefinito
 62
     9
420
 12632256
100
AcDbLine
 10
-5.624999999999996
 20
0.0
 30
18.6184301395928
 11
-5.624999999999996
 21
2.0
 31
18.6184301395928
  0
LINE
  5
253
330
169
100
AcDbEntity
  8
Predefinito
 62
     9
420
 12632256
100
AcDbLine
 10
-6.999999999999999
 20
1.0
 30
17.7368602791856
 11
-7.0
 21
1.0
 31
16.2368602791856
  0
LINE
  5
254
330
169
100
AcDbEntity
  8
Predefinito
 62
     9
420
 12632256
100
AcDbLine
 10
-7.0
 20
0.0
 30
16.9868602791856
 11
-7.0
 21
2.0
 31
16.9868602791856
  0
LINE
  5
255
330
169
100
AcDbEntity
  8
Predefinito
 62
     9
420
 12632256
100
AcDbLine
 10
-4.250000000000005
 20
1.0
 30
24.00000000000001
 11
-7.0
 21
1.0
 31
17.7368602791856
  0
LINE
  5
256
330
169
100
AcDbEntity
  8
Predefinito
 62
     9
420
 12632256
100
AcDbLine
 10
-5.625000000000003
 20
0.0
 30
20.8684301395928
 11
-5.625000000000003
 21
2.0
 31
20.8684301395928
  0
LINE
  5
257
330
169
100
AcDbEntity
  8
Predefinito
 62
     9
420
 12632256
100
AcDbLine
 10
5.375
 20
2.0
 30
19.05144284148502
 11
5.375
 21
2.0
 31
21.43780647784865
  0
LINE
  5
258
330
169
100
AcDbEntity
  8
Predefinito
 62
     9
420
 12632256
100
AcDbLine
 10
4.758974596215559
 20
2.0
 30
20.1184301395928
 11
5.954307678247327
 21
2.0
 31
20.1184301395928
  0
LINE
  5
259
330
169
100
AcDbEntity
  8
Predefinito
 62
     9
420
 12632256
100
AcDbLine
 10
5.625
 20
0.0
 30
18.6184301395928
 11
5.625
 21
0.0
 31
20.8684301395928
  0
LINE
  5
25A
330
169
100
AcDbEntity
  8
Predefinito
 62
     9
420
 12632256
100
AcDbLine
 10
4.758974596215559
 20
0.0
 30
20.1184301395928
 11
5.954307678247327
 21
0.0
 31
20.1184301395928
  0
LINE
  5
25B
330
169
100
AcDbEntity
  8
Predefinito
 62
     9
420
 12632256
100
AcDbLine
 10
6.999999999999993
 20
1.0
 30
16.2368602791856
 11
4.25
 21
1.0
 31
21.0
  0
LINE
  5
25C
330
169
100
AcDbEntity
  8
Predefinito
 62
     9
420
 12632256
100
AcDbLine
 10
5.624999999999996
 20
0.0
 30
18.6184301395928
 11
5.624999999999996
 21
2.0
 31
18.6184301395928
  0
LINE
  5
25D
330
169
100
AcDbEntity
  8
Predefinito
 62
     9
420
 12632256
100
AcDbLine
 10
6.999999999999999
 20
1.0
 30
17.7368602791856
 11
7.0
 21
1.0
 31
16.2368602791856
  0
LINE
  5
25E
330
169
100
AcDbEntity
  8
Predefinito
 62
     9
420
 12632256
100
AcDbLine
 10
7.0
 20
0.0
 30
16.9868602791856
 11
7.0
 21
2.0
 31
16.9868602791856
  0
LINE
  5
25F
330
169
100
AcDbEntity
  8
Predefinito
 62
     9
420
 12632256
100
AcDbLine
 10
4.250000000000005
 20
1.0
 30
24.00000000000001
 11
7.0
 21
1.0
 31
17.7368602791856
  0
LINE
  5
260
330
169
100
AcDbEntity
  8
Predefinito
 62
     9
420
 12632256
100
AcDbLine
 10
5.625000000000003
 20
0.0
 30
20.8684301395928
 11
5.625000000000003
 21
2.0
 31
20.8684301395928
  0
ENDBLK
  5
262
330
169
100
AcDbEntity
  8
0
100
AcDbBlockEnd
  0
BLOCK
  5
2BD
330
265
100
AcDbEntity
  8
0
100
AcDbBlockBegin
  2
10RA07360YY_00
 70
     0
 10
0.0
 20
0.0
 30
0.0
  3
10RA07360YY_00
  1
10RA07360YY_00
  0
LINE
  5
266
330
265
100
AcDbEntity
  8
Predefinito
 62
     9
420
 12632256
100
AcDbLine
 10
-2.5
 20
-0.5999999999999999
 30
0.0
 11
-2.5
 21
0.6000000000000001
 31
0.0
  0
LINE
  5
267
330
265
100
AcDbEntity
  8
Predefinito
 62
     9
420
 12632256
100
AcDbLine
 10
-2.5
 20
0.6000000000000001
 30
0.0
 11
-0.5999999999999961
 21
0.5999999999999999
 31
0.0
  0
LINE
  5
268
330
265
100
AcDbEntity
  8
Predefinito
 62
     9
420
 12632256
100
AcDbLine
 10
-0.5999999999999961
 20
0.5999999999999999
 30
0.0
 11
-0.599999999999995
 21
2.5
 31
0.0
  0
LINE
  5
269
330
265
100
AcDbEntity
  8
Predefinito
 62
     9
420
 12632256
100
AcDbLine
 10
-0.599999999999995
 20
2.5
 30
0.0
 11
0.6000000000000019
 21
2.5
 31
0.0
  0
LINE
  5
26A
330
265
100
AcDbEntity
  8
Predefinito
 62
     9
420
 12632256
100
AcDbLine
 10
0.6000000000000019
 20
2.5
 30
0.0
 11
0.600000000000003
 21
0.599999999999999
 31
0.0
  0
LINE
  5
26B
330
265
100
AcDbEntity
  8
Predefinito
 62
     9
420
 12632256
100
AcDbLine
 10
0.600000000000003
 20
0.599999999999999
 30
0.0
 11
2.50000000000001
 21
0.599999999999999
 31
0.0
  0
LINE
  5
26C
330
265
100
AcDbEntity
  8
Predefinito
 62
     9
420
 12632256
100
AcDbLine
 10
2.50000000000001
 20
0.599999999999999
 30
0.0
 11
2.50000000000001
 21
-0.5999999999999992
 31
0.0
  0
LINE
  5
26D
330
265
100
AcDbEntity
  8
Predefinito
 62
     9
420
 12632256
100
AcDbLine
 10
2.50000000000001
 20
-0.5999999999999992
 30
0.0
 11
0.6000000000000028
 21
-0.6000000000000001
 31
0.0
  0
LINE
  5
26E
330
265
100
AcDbEntity
  8
Predefinito
 62
     9
420
 12632256
100
AcDbLine
 10
0.6000000000000028
 20
-0.6000000000000001
 30
0.0
 11
0.600000000000003
 21
-2.5
 31
0.0
  0
LINE
  5
26F
330
265
100
AcDbEntity
  8
Predefinito
 62
     9
420
 12632256
100
AcDbLine
 10
0.600000000000003
 20
-2.5
 30
0.0
 11
-0.5999999999999969
 21
-2.5
 31
0.0
  0
LINE
  5
270
330
265
100
AcDbEntity
  8
Predefinito
 62
     9
420
 12632256
100
AcDbLine
 10
-0.5999999999999969
 20
-2.5
 30
0.0
 11
-0.5999999999999961
 21
-0.5999999999999998
 31
0.0
  0
LINE
  5
271
330
265
100
AcDbEntity
  8
Predefinito
 62
     9
420
 12632256
100
AcDbLine
 10
-0.5999999999999961
 20
-0.5999999999999998
 30
0.0
 11
-2.5
 21
-0.5999999999999999
 31
0.0
  0
ARC
  5
272
330
265
100
AcDbEntity
  8
Predefinito
 62
     9
420
 12632256
100
AcDbCircle
 10
0.0000000000000002
 20
0.0
 30
-2.145156466669543
 40
2.250000000000001
100
AcDbArc
 50
0.0
 51
180.0
  0
ARC
  5
273
330
265
100
AcDbEntity
  8
Predefinito
 62
     9
420
 12632256
100
AcDbCircle
 10
-0.0000000000000002
 20
0.0
 30
-2.145156466669543
 40
2.250000000000001
100
AcDbArc
 50
180.0
 51
0.0
  0
ARC
  5
274
330
265
100
AcDbEntity
  8
Predefinito
 62
     9
420
 12632256
100
AcDbCircle
 10
-0.0000000000000004
 20
0.0
 30
0.0000000000000002
 40
4.050000000000001
100
AcDbArc
 50
180.0
 51
0.0
  0
ARC
  5
275
330
265
100
AcDbEntity
  8
Predefinito
 62
     9
420
 12632256
100
AcDbCircle
 10
0.0
 20
0.0
 30
0.0000000000000002
 40
4.050000000000001
100
AcDbArc
 50
0.0
 51
180.0
  0
LINE
  5
276
330
265
100
AcDbEntity
  8
Predefinito
 62
     9
420
 12632256
100
AcDbLine
 10
2.25
 20
0.0
 30
-2.145156466669585
 11
4.05
 21
-0.0000000000000002
 31
0.0000000000000002
  0
ARC
  5
277
330
265
100
AcDbEntity
  8
Predefinito
 62
     9
420
 12632256
100
AcDbCircle
 10
0.0
 20
0.0
 30
-37.75
 40
2.250000000000001
100
AcDbArc
 50
0.0
 51
180.0
  0
ARC
  5
278
330
265
100
AcDbEntity
  8
Predefinito
 62
     9
420
 12632256
100
AcDbCircle
 10
0.0
 20
0.0
 30
-37.75
 40
2.250000000000001
100
AcDbArc
 50
180.0
 51
0.0
  0
LINE
  5
279
330
265
100
AcDbEntity
  8
Predefinito
 62
     9
420
 12632256
100
AcDbLine
 10
2.250000000000001
 20
0.0
 30
-37.75
 11
2.25
 21
0.0
 31
-2.145156466669585
  0
LINE
  5
27A
330
265
100
AcDbEntity
  8
Predefinito
 62
     9
420
 12632256
100
AcDbLine
 10
0.0
 20
0.0
 30
-40.0
 11
2.250000000000001
 21
0.0
 31
-37.75
  0
LINE
  5
27B
330
265
100
AcDbEntity
  8
Predefinito
 62
     9
420
 12632256
100
AcDbLine
 10
-2.5
 20
-0.5999999999999999
 30
-1.5
 11
-2.5
 21
-0.5999999999999999
 31
0.0
  0
LINE
  5
27C
330
265
100
AcDbEntity
  8
Predefinito
 62
     9
420
 12632256
100
AcDbLine
 10
-2.5
 20
0.6000000000000001
 30
-1.5
 11
-2.5
 21
-0.5999999999999999
 31
-1.5
  0
LINE
  5
27D
330
265
100
AcDbEntity
  8
Predefinito
 62
     9
420
 12632256
100
AcDbLine
 10
-2.5
 20
0.6000000000000001
 30
0.0
 11
-2.5
 21
0.6000000000000001
 31
-1.5
  0
LINE
  5
27E
330
265
100
AcDbEntity
  8
Predefinito
 62
     9
420
 12632256
100
AcDbLine
 10
-0.5999999999999961
 20
-0.5999999999999998
 30
-1.5
 11
-0.5999999999999961
 21
-0.5999999999999998
 31
0.0
  0
LINE
  5
27F
330
265
100
AcDbEntity
  8
Predefinito
 62
     9
420
 12632256
100
AcDbLine
 10
-2.5
 20
-0.5999999999999999
 30
-1.5
 11
-0.5999999999999961
 21
-0.5999999999999998
 31
-1.5
  0
LINE
  5
280
330
265
100
AcDbEntity
  8
Predefinito
 62
     9
420
 12632256
100
AcDbLine
 10
-0.5999999999999969
 20
-2.5
 30
-1.5
 11
-0.5999999999999969
 21
-2.5
 31
0.0
  0
LINE
  5
281
330
265
100
AcDbEntity
  8
Predefinito
 62
     9
420
 12632256
100
AcDbLine
 10
-0.5999999999999961
 20
-0.5999999999999998
 30
-1.5
 11
-0.5999999999999969
 21
-2.5
 31
-1.5
  0
LINE
  5
282
330
265
100
AcDbEntity
  8
Predefinito
 62
     9
420
 12632256
100
AcDbLine
 10
0.600000000000003
 20
-2.5
 30
-1.5
 11
0.600000000000003
 21
-2.5
 31
0.0
  0
LINE
  5
283
330
265
100
AcDbEntity
  8
Predefinito
 62
     9
420
 12632256
100
AcDbLine
 10
-0.5999999999999969
 20
-2.5
 30
-1.5
 11
0.600000000000003
 21
-2.5
 31
-1.5
  0
LINE
  5
284
330
265
100
AcDbEntity
  8
Predefinito
 62
     9
420
 12632256
100
AcDbLine
 10
0.6000000000000028
 20
-0.6000000000000001
 30
-1.5
 11
0.6000000000000028
 21
-0.6000000000000001
 31
0.0
  0
LINE
  5
285
330
265
100
AcDbEntity
  8
Predefinito
 62
     9
420
 12632256
100
AcDbLine
 10
0.600000000000003
 20
-2.5
 30
-1.5
 11
0.6000000000000028
 21
-0.6000000000000001
 31
-1.5
  0
LINE
  5
286
330
265
100
AcDbEntity
  8
Predefinito
 62
     9
420
 12632256
100
AcDbLine
 10
2.50000000000001
 20
-0.5999999999999992
 30
-1.5
 11
2.50000000000001
 21
-0.5999999999999992
 31
0.0
  0
LINE
  5
287
330
265
100
AcDbEntity
  8
Predefinito
 62
     9
420
 12632256
100
AcDbLine
 10
0.6000000000000028
 20
-0.6000000000000001
 30
-1.5
 11
2.50000000000001
 21
-0.5999999999999992
 31
-1.5
  0
LINE
  5
288
330
265
100
AcDbEntity
  8
Predefinito
 62
     9
420
 12632256
100
AcDbLine
 10
2.50000000000001
 20
0.599999999999999
 30
-1.5
 11
2.50000000000001
 21
0.599999999999999
 31
0.0
  0
LINE
  5
289
330
265
100
AcDbEntity
  8
Predefinito
 62
     9
420
 12632256
100
AcDbLine
 10
2.50000000000001
 20
-0.5999999999999992
 30
-1.5
 11
2.50000000000001
 21
0.599999999999999
 31
-1.5
  0
LINE
  5
28A
330
265
100
AcDbEntity
  8
Predefinito
 62
     9
420
 12632256
100
AcDbLine
 10
0.600000000000003
 20
0.599999999999999
 30
-1.5
 11
0.600000000000003
 21
0.599999999999999
 31
0.0
  0
LINE
  5
28B
330
265
100
AcDbEntity
  8
Predefinito
 62
     9
420
 12632256
100
AcDbLine
 10
2.50000000000001
 20
0.599999999999999
 30
-1.5
 11
0.600000000000003
 21
0.599999999999999
 31
-1.5
  0
LINE
  5
28C
330
265
100
AcDbEntity
  8
Predefinito
 62
     9
420
 12632256
100
AcDbLine
 10
0.6000000000000019
 20
2.5
 30
-1.5
 11
0.6000000000000019
 21
2.5
 31
0.0
  0
LINE
  5
28D
330
265
100
AcDbEntity
  8
Predefinito
 62
     9
420
 12632256
100
AcDbLine
 10
0.600000000000003
 20
0.599999999999999
 30
-1.5
 11
0.6000000000000019
 21
2.5
 31
-1.5
  0
LINE
  5
28E
330
265
100
AcDbEntity
  8
Predefinito
 62
     9
420
 12632256
100
AcDbLine
 10
-0.599999999999995
 20
2.5
 30
-1.5
 11
-0.599999999999995
 21
2.5
 31
0.0
  0
LINE
  5
28F
330
265
100
AcDbEntity
  8
Predefinito
 62
     9
420
 12632256
100
AcDbLine
 10
0.6000000000000019
 20
2.5
 30
-1.5
 11
-0.599999999999995
 21
2.5
 31
-1.5
  0
LINE
  5
290
330
265
100
AcDbEntity
  8
Predefinito
 62
     9
420
 12632256
100
AcDbLine
 10
-0.5999999999999961
 20
0.5999999999999993
 30
-1.5
 11
-0.5999999999999961
 21
0.5999999999999999
 31
0.0
  0
LINE
  5
291
330
265
100
AcDbEntity
  8
Predefinito
 62
     9
420
 12632256
100
AcDbLine
 10
-0.599999999999995
 20
2.5
 30
-1.5
 11
-0.5999999999999961
 21
0.5999999999999993
 31
-1.5
  0
LINE
  5
292
330
265
100
AcDbEntity
  8
Predefinito
 62
     9
420
 12632256
100
AcDbLine
 10
-0.5999999999999961
 20
0.5999999999999993
 30
-1.5
 11
-2.5
 21
0.6000000000000001
 31
-1.5
  0
LINE
  5
293
330
265
100
AcDbEntity
  8
Predefinito
 62
     9
420
 12632256
100
AcDbLine
 10
-4.05
 20
-0.0000000000000004
 30
0.0
 11
-2.5
 21
-0.0000000000000004
 31
0.0
  0
LINE
  5
294
330
265
100
AcDbEntity
  8
Predefinito
 62
     9
420
 12632256
100
AcDbLine
 10
2.500000000000011
 20
-0.0000000000000004
 30
0.0
 11
4.05
 21
-0.0000000000000004
 31
0.0
  0
LINE
  5
295
330
265
100
AcDbEntity
  8
Predefinito
 62
     9
420
 12632256
100
AcDbLine
 10
-0.0000000000000004
 20
-4.05
 30
0.0
 11
-0.0000000000000004
 21
-2.5
 31
0.0
  0
LINE
  5
296
330
265
100
AcDbEntity
  8
Predefinito
 62
     9
420
 12632256
100
AcDbLine
 10
-0.0000000000000004
 20
2.5
 30
0.0
 11
-0.0000000000000004
 21
4.049999999999998
 31
0.0
  0
CIRCLE
  5
297
330
265
100
AcDbEntity
  8
Predefinito
 62
     9
420
 12632256
100
AcDbCircle
 10
0.0
 20
0.0
 30
-2.141970922502952
 40
2.252672988935318
  0
LINE
  5
298
330
265
100
AcDbEntity
  8
Predefinito
 62
     9
420
 12632256
100
AcDbLine
 10
0.0
 20
2.250000000000001
 30
-2.14515646666958
 11
0.0
 21
4.05
 31
0.0000000000000006
  0
LINE
  5
299
330
265
100
AcDbEntity
  8
Predefinito
 62
     9
420
 12632256
100
AcDbLine
 10
-2.250000000000001
 20
0.0
 30
-2.14515646666958
 11
-4.05
 21
0.0
 31
0.0000000000000006
  0
LINE
  5
29A
330
265
100
AcDbEntity
  8
Predefinito
 62
     9
420
 12632256
100
AcDbLine
 10
0.0
 20
-2.250000000000001
 30
-2.14515646666958
 11
0.0
 21
-4.05
 31
0.0000000000000006
  0
CIRCLE
  5
29B
330
265
100
AcDbEntity
  8
Predefinito
 62
     9
420
 12632256
100
AcDbCircle
 10
0.0
 20
0.0
 30
-19.94757823333475
 40
2.25
  0
LINE
  5
29C
330
265
100
AcDbEntity
  8
Predefinito
 62
     9
420
 12632256
100
AcDbLine
 10
0.0
 20
2.25
 30
-37.75
 11
0.0
 21
2.25
 31
-2.145156466669593
  0
LINE
  5
29D
330
265
100
AcDbEntity
  8
Predefinito
 62
     9
420
 12632256
100
AcDbLine
 10
-2.25
 20
0.0
 30
-37.75
 11
-2.25
 21
0.0
 31
-2.145156466669593
  0
LINE
  5
29E
330
265
100
AcDbEntity
  8
Predefinito
 62
     9
420
 12632256
100
AcDbLine
 10
0.0
 20
-2.25
 30
-37.75
 11
0.0
 21
-2.25
 31
-2.145156466669593
  0
CIRCLE
  5
29F
330
265
100
AcDbEntity
  8
Predefinito
 62
     9
420
 12632256
100
AcDbCircle
 10
0.0
 20
0.0
 30
-38.7325
 40
1.2675
  0
LINE
  5
2A0
330
265
100
AcDbEntity
  8
Predefinito
 62
     9
420
 12632256
100
AcDbLine
 10
0.0
 20
0.0
 30
-40.0
 11
0.0
 21
2.250000000000002
 31
-37.75
  0
LINE
  5
2A1
330
265
100
AcDbEntity
  8
Predefinito
 62
     9
420
 12632256
100
AcDbLine
 10
0.0
 20
0.0
 30
-40.0
 11
-2.250000000000002
 21
0.0
 31
-37.75
  0
LINE
  5
2A2
330
265
100
AcDbEntity
  8
Predefinito
 62
     9
420
 12632256
100
AcDbLine
 10
0.0
 20
0.0
 30
-40.0
 11
0.0
 21
-2.250000000000002
 31
-37.75
  0
LINE
  5
2A3
330
265
100
AcDbEntity
  8
Predefinito
 62
     9
420
 12632256
100
AcDbLine
 10
-2.5
 20
0.0000000000000001
 30
-1.5
 11
-2.5
 21
0.0000000000000001
 31
0.0
  0
LINE
  5
2A4
330
265
100
AcDbEntity
  8
Predefinito
 62
     9
420
 12632256
100
AcDbLine
 10
-2.5
 20
-0.6
 30
-0.75
 11
-2.5
 21
0.5999999999999999
 31
-0.75
  0
LINE
  5
2A5
330
265
100
AcDbEntity
  8
Predefinito
 62
     9
420
 12632256
100
AcDbLine
 10
-2.5
 20
-0.6000000000000001
 30
-0.75
 11
-0.5999999999999961
 21
-0.5999999999999995
 31
-0.75
  0
LINE
  5
2A6
330
265
100
AcDbEntity
  8
Predefinito
 62
     9
420
 12632256
100
AcDbLine
 10
-1.549999999999998
 20
-0.5999999999999998
 30
-1.5
 11
-1.549999999999998
 21
-0.5999999999999998
 31
0.0
  0
LINE
  5
2A7
330
265
100
AcDbEntity
  8
Predefinito
 62
     9
420
 12632256
100
AcDbLine
 10
-0.5999999999999959
 20
-0.6
 30
-0.75
 11
-0.5999999999999968
 21
-2.5
 31
-0.75
  0
LINE
  5
2A8
330
265
100
AcDbEntity
  8
Predefinito
 62
     9
420
 12632256
100
AcDbLine
 10
-0.5999999999999963
 20
-1.55
 30
-1.5
 11
-0.5999999999999963
 21
-1.55
 31
0.0
  0
LINE
  5
2A9
330
265
100
AcDbEntity
  8
Predefinito
 62
     9
420
 12632256
100
AcDbLine
 10
0.0000000000000029
 20
-2.5
 30
0.0
 11
0.0000000000000029
 21
-2.5
 31
-1.5
  0
LINE
  5
2AA
330
265
100
AcDbEntity
  8
Predefinito
 62
     9
420
 12632256
100
AcDbLine
 10
-0.599999999999997
 20
-2.5
 30
-0.75
 11
0.6000000000000028
 21
-2.5
 31
-0.75
  0
LINE
  5
2AB
330
265
100
AcDbEntity
  8
Predefinito
 62
     9
420
 12632256
100
AcDbLine
 10
0.600000000000003
 20
-2.5
 30
-0.75
 11
0.6000000000000024
 21
-0.6000000000000001
 31
-0.75
  0
LINE
  5
2AC
330
265
100
AcDbEntity
  8
Predefinito
 62
     9
420
 12632256
100
AcDbLine
 10
0.6000000000000028
 20
-1.55
 30
-1.5
 11
0.6000000000000028
 21
-1.55
 31
0.0
  0
LINE
  5
2AD
330
265
100
AcDbEntity
  8
Predefinito
 62
     9
420
 12632256
100
AcDbLine
 10
0.600000000000003
 20
-0.5999999999999999
 30
-0.75
 11
2.50000000000001
 21
-0.5999999999999998
 31
-0.75
  0
LINE
  5
2AE
330
265
100
AcDbEntity
  8
Predefinito
 62
     9
420
 12632256
100
AcDbLine
 10
1.550000000000006
 20
-0.5999999999999999
 30
-1.5
 11
1.550000000000006
 21
-0.5999999999999999
 31
0.0
  0
LINE
  5
2AF
330
265
100
AcDbEntity
  8
Predefinito
 62
     9
420
 12632256
100
AcDbLine
 10
2.50000000000001
 20
0.0
 30
0.0
 11
2.50000000000001
 21
0.0
 31
-1.5
  0
LINE
  5
2B0
330
265
100
AcDbEntity
  8
Predefinito
 62
     9
420
 12632256
100
AcDbLine
 10
2.50000000000001
 20
-0.599999999999999
 30
-0.75
 11
2.50000000000001
 21
0.599999999999999
 31
-0.75
  0
LINE
  5
2B1
330
265
100
AcDbEntity
  8
Predefinito
 62
     9
420
 12632256
100
AcDbLine
 10
1.550000000000006
 20
0.599999999999999
 30
-1.5
 11
1.550000000000006
 21
0.599999999999999
 31
0.0
  0
LINE
  5
2B2
330
265
100
AcDbEntity
  8
Predefinito
 62
     9
420
 12632256
100
AcDbLine
 10
0.600000000000003
 20
0.599999999999999
 30
-0.75
 11
2.50000000000001
 21
0.599999999999999
 31
-0.75
  0
LINE
  5
2B3
330
265
100
AcDbEntity
  8
Predefinito
 62
     9
420
 12632256
100
AcDbLine
 10
0.600000000000003
 20
0.599999999999999
 30
-0.75
 11
0.6000000000000019
 21
2.5
 31
-0.75
  0
LINE
  5
2B4
330
265
100
AcDbEntity
  8
Predefinito
 62
     9
420
 12632256
100
AcDbLine
 10
0.6000000000000024
 20
1.549999999999999
 30
-1.5
 11
0.6000000000000024
 21
1.549999999999999
 31
0.0
  0
LINE
  5
2B5
330
265
100
AcDbEntity
  8
Predefinito
 62
     9
420
 12632256
100
AcDbLine
 10
0.0000000000000036
 20
2.5
 30
-1.5
 11
0.0000000000000036
 21
2.5
 31
0.0
  0
LINE
  5
2B6
330
265
100
AcDbEntity
  8
Predefinito
 62
     9
420
 12632256
100
AcDbLine
 10
-0.5999999999999951
 20
2.5
 30
-0.75
 11
0.6000000000000019
 21
2.5
 31
-0.75
  0
LINE
  5
2B7
330
265
100
AcDbEntity
  8
Predefinito
 62
     9
420
 12632256
100
AcDbLine
 10
-0.5999999999999949
 20
2.5
 30
-0.75
 11
-0.5999999999999964
 21
0.5999999999999996
 31
-0.75
  0
LINE
  5
2B8
330
265
100
AcDbEntity
  8
Predefinito
 62
     9
420
 12632256
100
AcDbLine
 10
-0.5999999999999956
 20
1.549999999999999
 30
-1.5
 11
-0.5999999999999956
 21
1.549999999999999
 31
0.0
  0
LINE
  5
2B9
330
265
100
AcDbEntity
  8
Predefinito
 62
     9
420
 12632256
100
AcDbLine
 10
-0.599999999999996
 20
0.5999999999999999
 30
-0.75
 11
-2.5
 21
0.6000000000000003
 31
-0.75
  0
LINE
  5
2BA
330
265
100
AcDbEntity
  8
Predefinito
 62
     9
420
 12632256
100
AcDbLine
 10
-1.549999999999998
 20
0.6000000000000002
 30
-1.5
 11
-1.549999999999998
 21
0.6000000000000002
 31
0.0
  0
LINE
  5
2BB
330
265
100
AcDbEntity
  8
Predefinito
 62
     9
420
 12632256
100
AcDbLine
 10
-2.5
 20
0.0
 30
-1.5
 11
2.500000000000011
 21
0.0
 31
-1.5
  0
LINE
  5
2BC
330
265
100
AcDbEntity
  8
Predefinito
 62
     9
420
 12632256
100
AcDbLine
 10
0.0000000000000049
 20
-2.5
 30
-1.5
 11
0.0000000000000049
 21
2.5
 31
-1.5
  0
ENDBLK
  5
2BE
330
265
100
AcDbEntity
  8
0
100
AcDbBlockEnd
  0
BLOCK
  5
326
330
2C4
100
AcDbEntity
  8
0
100
AcDbBlockBegin
  2
3600SC01-00
 70
     0
 10
0.0
 20
0.0
 30
0.0
  3
3600SC01-00
  1
3600SC01-00
  0
ARC
  5
2C5
330
2C4
100
AcDbEntity
  8
Predefinito
 62
     9
420
 12632256
100
AcDbCircle
 10
-0.0000000000000053
 20
0.0
 30
-25.0
 40
15.0
210
1.906772976650543E-65
220
1.0
230
-7.784991468471206E-49
100
AcDbArc
 50
180.0
 51
0.0
  0
ARC
  5
2C6
330
2C4
100
AcDbEntity
  8
Predefinito
 62
     9
420
 12632256
100
AcDbCircle
 10
-0.0000000000000024
 20
0.0
 30
-25.0
 40
15.0
210
-1.184237892933500E-16
220
1.0
230
0.0
100
AcDbArc
 50
0.000000000000007
 51
180.0
  0
ARC
  5
2C7
330
2C4
100
AcDbEntity
  8
Predefinito
 62
     9
420
 12632256
100
AcDbCircle
 10
0.0000000000000071
 20
0.0
 30
-60.0
 40
15.0
210
-2.368475785867001E-16
220
1.0
230
0.0
100
AcDbArc
 50
0.0
 51
180.0
  0
ARC
  5
2C8
330
2C4
100
AcDbEntity
  8
Predefinito
 62
     9
420
 12632256
100
AcDbCircle
 10
0.0000000000000071
 20
0.0
 30
-60.0
 40
15.0
210
-2.368475785867001E-16
220
1.0
230
0.0
100
AcDbArc
 50
180.0
 51
0.0
  0
SPLINE
  5
2C9
330
2C4
100
AcDbEntity
  8
Predefinito
 62
     9
420
 12632256
100
AcDbSpline
 70
     0
 71
     3
 72
    66
 73
    62
 74
     0
 42
0.000000001
 43
0.0000000001
 40
-0.101713377574894
 40
-0.101713377574894
 40
-0.101713377574894
 40
-0.101713377574894
 40
-0.1002644630570078
 40
-0.1002644630570078
 40
-0.0995400057980646
 40
-0.0995400057980646
 40
-0.0988155485391215
 40
-0.0988155485391215
 40
-0.0984533199096499
 40
-0.0984533199096499
 40
-0.0980910912801784
 40
-0.0980910912801784
 40
-0.0977288626507068
 40
-0.0977288626507068
 40
-0.0973666340212353
 40
-0.0973666340212353
 40
-0.0966421767622921
 40
-0.0966421767622921
 40
-0.095917719503349
 40
-0.095917719503349
 40
-0.0943339446071443
 40
-0.0943339446071443
 40
-0.0927501697109396
 40
-0.0927501697109396
 40
-0.0895826199185301
 40
-0.0895826199185301
 40
-0.0864146870961602
 40
-0.0864146870961602
 40
-0.0832467542737903
 40
-0.0832467542737903
 40
-0.076910835483648
 40
-0.076910835483648
 40
-0.0705749521958309
 40
-0.0705749521958309
 40
-0.0674070407495376
 40
-0.0674070407495376
 40
-0.0642391293032443
 40
-0.0642391293032443
 40
-0.0610715407082572
 40
-0.0610715407082572
 40
-0.0594877464107636
 40
-0.0594877464107636
 40
-0.05790395211327
 40
-0.05790395211327
 40
-0.0571771054703609
 40
-0.0571771054703609
 40
-0.0564502588274517
 40
-0.0564502588274517
 40
-0.0560868355059971
 40
-0.0560868355059971
 40
-0.0557234121845425
 40
-0.0557234121845425
 40
-0.055359988863088
 40
-0.055359988863088
 40
-0.0549965655416334
 40
-0.0549965655416334
 40
-0.0542697188987242
 40
-0.0542697188987242
 40
-0.053542872255815
 40
-0.053542872255815
 40
-0.0520891793165842
 40
-0.0520891793165842
 40
-0.0520891793165842
 40
-0.0520891793165842
 10
6.809991157201684
 20
-34.40000000000001
 30
-13.36502975824729
 10
6.446428946861883
 20
-34.10190197562114
 30
-13.55027853676041
 10
6.037142040840491
 20
-33.80413129699292
 30
-13.74170020130485
 10
5.297771803447662
 20
-33.35828874157671
 30
-14.03581013085999
 10
5.030719056131159
 20
-33.20990172012628
 30
-14.13486109196551
 10
4.423232553121516
 20
-32.913700336232
 30
-14.33657720977667
 10
4.087318392715797
 20
-32.7658061032139
 30
-14.43842994997286
 10
3.480015934325292
 20
-32.54517027760572
 30
-14.59222727560016
 10
3.261101461191532
 20
-32.47186171967194
 30
-14.64344860239019
 10
2.760156909173551
 20
-32.32611023604067
 30
-14.74608095555461
 10
2.484228747484095
 20
-32.25371879813113
 30
-14.79710199693606
 10
1.782576763285187
 20
-32.11148927652242
 30
-14.89792066231228
 10
1.269970438642928
 20
-32.03179473789798
 30
-14.95471389652438
 10
0.2587788362370376
 20
-31.96054623262649
 30
-15.00630954484953
 10
-0.2175887485673059
 20
-31.96299980326311
 30
-15.0047698471944
 10
-1.525607383199511
 20
-32.04194877328506
 30
-14.94772137268533
 10
-2.192406754277126
 20
-32.18333119555506
 30
-14.84670698469141
 10
-3.139082495064699
 20
-32.42534173130053
 30
-14.67574586706457
 10
-3.499658995571754
 20
-32.54815362940607
 30
-14.58988321478972
 10
-4.532128085777833
 20
-32.94063089329618
 30
-14.31770065888563
 10
-5.051287212242135
 20
-33.21202780179655
 30
-14.13236581678574
 10
-5.961286123849606
 20
-33.75535288144285
 30
-13.77324703291177
 10
-6.344653843734283
 20
-34.02764100541996
 30
-13.59747928307745
 10
-7.371015875110064
 20
-34.84501838192377
 30
-13.08634501956159
 10
-7.898107974090141
 20
-35.3907995984466
 30
-12.76325444000921
 10
-8.779083622817978
 20
-36.48293780111115
 30
-12.17409266115863
 10
-9.13352972928769
 20
-37.02956681318408
 30
-11.90471918708744
 10
-9.723203761761201
 20
-38.12295356923657
 30
-11.42816751918095
 10
-9.955140695201397
 20
-38.66979795422557
 30
-11.22300106791703
 10
-10.49941625399422
 20
-40.31107634444875
 30
-10.72401880441218
 10
-10.67060020304643
 20
-41.4054208023941
 30
-10.54221472514428
 10
-10.67050799368838
 20
-43.59491694333559
 30
-10.54230805663236
 10
-10.49946091575048
 20
-44.68926477127399
 30
-10.72397714825815
 10
-9.955136228445083
 20
-46.33051327191772
 30
-11.22300551846053
 10
-9.72310827263561
 20
-46.87735195845701
 30
-11.42825163190054
 10
-9.133292866318158
 20
-47.97073675048516
 30
-11.90490366451969
 10
-8.778954143358376
 20
-48.51735897264668
 30
-12.17419338983535
 10
-7.897676086332044
 20
-49.60949540631956
 30
-12.7635291241613
 10
-7.370776202738698
 20
-50.15529362574416
 30
-13.08648364149007
 10
-6.344319268681953
 20
-50.97267695742236
 30
-13.59763626515626
 10
-5.961007172610783
 20
-51.2449695701229
 30
-13.77337372861319
 10
-5.050684525000039
 20
-51.78829516197978
 30
-14.1325870317113
 10
-4.531389682696639
 20
-52.05970411524563
 30
-14.31794532970323
 10
-3.497535753716175
 20
-52.45257837431603
 30
-14.59041994941448
 10
-3.135586643714475
 20
-52.57578915613171
 30
-14.67658036304154
 10
-2.183618138454523
 20
-52.81857561892354
 30
-14.8480883139369
 10
-1.509697329229677
 20
-52.96010065697453
 30
-14.9491837602951
 10
-0.2055585038265117
 20
-53.03738415011691
 30
-15.00490139863449
 10
0.2679182509287856
 20
-53.03929013441918
 30
-15.00600724370882
 10
1.270655864052304
 20
-52.96801160008771
 30
-14.95451327401102
 10
1.781141945247025
 20
-52.8885524332041
 30
-14.89807677510557
 10
2.481517227317218
 20
-52.74626851170112
 30
-14.79754136593597
 10
2.757602415806518
 20
-52.67389081880883
 30
-14.74656173168414
 10
3.258886449058642
 20
-52.52813418052774
 30
-14.64394458819669
 10
3.478184652031948
 20
-52.45483623789962
 30
-14.59266931112111
 10
4.086604066847864
 20
-52.23420573948336
 30
-14.43865407821264
 10
4.42342970174824
 20
-52.0863218170237
 30
-14.33652803195658
 10
5.031896136858042
 20
-51.7901236071102
 30
-14.13445391959868
 10
5.299184888929952
 20
-51.64173731010732
 30
-14.03527435060684
 10
6.038183402383593
 20
-51.19588822119004
 30
-13.74123311062657
 10
6.446424243070668
 20
-50.89810186357326
 30
-13.55028092538516
 10
6.809991157201653
 20
-50.59999999999999
 30
-13.3650297582473
  0
ARC
  5
2CA
330
2C4
100
AcDbEntity
  8
Predefinito
 62
     9
420
 12632256
100
AcDbCircle
 10
0.0000000000000124
 20
-0.0000000000000056
 30
-50.59999999999999
 40
15.00000000000002
210
-2.188383763408423E-31
220
1.0
230
1.341028242955573E-31
100
AcDbArc
 50
180.0
 51
242.9994269973187
  0
ARC
  5
2CB
330
2C4
100
AcDbEntity
  8
Predefinito
 62
     9
420
 12632256
100
AcDbCircle
 10
0.000000000000025
 20
-0.0000000000000112
 30
-50.59999999999999
 40
15.00000000000003
210
5.004956029660381E-17
220
1.0
230
2.756892438140539E-17
100
AcDbArc
 50
122.3051965117209
 51
180.0
  0
SPLINE
  5
2CC
330
2C4
100
AcDbEntity
  8
Predefinito
 62
     9
420
 12632256
100
AcDbSpline
 70
     0
 71
     3
 72
    86
 73
    82
 74
     0
 42
0.000000001
 43
0.0000000001
 40
-0.0937631638065033
 40
-0.0937631638065033
 40
-0.0937631638065033
 40
-0.0937631638065033
 40
-0.0923120802987814
 40
-0.0923120802987814
 40
-0.0908609964450942
 40
-0.0908609964450942
 40
-0.0901354545182506
 40
-0.0901354545182506
 40
-0.089409912591407
 40
-0.089409912591407
 40
-0.0890471416279852
 40
-0.0890471416279852
 40
-0.0888657561462743
 40
-0.0888657561462743
 40
-0.0886843706645634
 40
-0.0886843706645634
 40
-0.0885936779237079
 40
-0.0885936779237079
 40
-0.0885029851828524
 40
-0.0885029851828524
 40
-0.0883215997011415
 40
-0.0883215997011415
 40
-0.0879588287377197
 40
-0.0879588287377197
 40
-0.0874995353193774
 40
-0.0874995353193774
 40
-0.087040241901035
 40
-0.087040241901035
 40
-0.0861216550643503
 40
-0.0861216550643503
 40
-0.0842844813909808
 40
-0.0842844813909808
 40
-0.0824473077176113
 40
-0.0824473077176113
 40
-0.0806101340442418
 40
-0.0806101340442418
 40
-0.0769356288012134
 40
-0.0769356288012134
 40
-0.0732611235581848
 40
-0.0732611235581848
 40
-0.0659116646452134
 40
-0.0659116646452134
 40
-0.058562255396611
 40
-0.058562255396611
 40
-0.054887726948484
 40
-0.054887726948484
 40
-0.0512131985003569
 40
-0.0512131985003569
 40
-0.0493760449819857
 40
-0.0493760449819857
 40
-0.0475388914636145
 40
-0.0475388914636145
 40
-0.0457017379452433
 40
-0.0457017379452433
 40
-0.0447831611860577
 40
-0.0447831611860577
 40
-0.0443238728064649
 40
-0.0443238728064649
 40
-0.0438645844268721
 40
-0.0438645844268721
 40
-0.0435006348626225
 40
-0.0435006348626225
 40
-0.0433186600804977
 40
-0.0433186600804977
 40
-0.0432276726894353
 40
-0.0432276726894353
 40
-0.0431366852983729
 40
-0.0431366852983729
 40
-0.0429547105162482
 40
-0.0429547105162482
 40
-0.0427727357341234
 40
-0.0427727357341234
 40
-0.0424087861698738
 40
-0.0424087861698738
 40
-0.0416808870413747
 40
-0.0416808870413747
 40
-0.0409529879128755
 40
-0.0409529879128755
 40
-0.0394971896558773
 40
-0.0394971896558773
 40
-0.038041391398879
 40
-0.038041391398879
 40
-0.038041391398879
 40
-0.038041391398879
 10
8.016435138920244
 20
-50.59999999999999
 30
12.6782004899546
 10
7.702135483146838
 20
-50.9197947239654
 30
12.87693237722536
 10
7.352463282359589
 20
-51.23935266721355
 30
13.08246047951457
 10
6.541149916088616
 20
-51.87793776926637
 30
13.50640020107698
 10
6.084513419278514
 20
-52.19684061832567
 30
13.72393364400549
 10
5.238833484719801
 20
-52.67416754341791
 30
14.05868195361821
 10
4.933775860156642
 20
-52.83301080103943
 30
14.17027940103184
 10
4.223806515128143
 20
-53.14972150025634
 30
14.3978616837478
 10
3.827847206094234
 20
-53.30788477717412
 30
14.51259393467058
 10
3.070900535423096
 20
-53.54287091271356
 30
14.68456738000812
 10
2.794781429385619
 20
-53.62084678856399
 30
14.74146765139804
 10
2.27858940494334
 20
-53.7359772713836
 30
14.82695006609564
 10
2.092850060422152
 20
-53.77414666156277
 30
14.85493529065055
 10
1.653041076695903
 20
-53.84828452369506
 30
14.91028433879047
 10
1.404052894758492
 20
-53.8852419511761
 30
14.93828157350103
 10
0.8779583549280029
 20
-53.93442568356153
 30
14.9753161686868
 10
0.6620839276427847
 20
-53.95056617009757
 30
14.9873822531252
 10
0.1724493177411298
 20
-53.9689287900493
 30
15.00100807150458
 10
-0.0557413887577858
 20
-53.96955810624336
 30
15.00134241669829
 10
-0.6804907118825155
 20
-53.95549849905112
 30
14.99034549344506
 10
-1.012298858609632
 20
-53.92541036699548
 30
14.96770237028934
 10
-1.72519118633617
 20
-53.84559455463424
 30
14.90809069832275
 10
-2.029172040463936
 20
-53.78665656627469
 30
14.86480626174204
 10
-2.66249379223483
 20
-53.65336931674928
 30
14.76615618434418
 10
-2.943516872612843
 20
-53.57745065379209
 30
14.71069480062284
 10
-3.456159992363218
 20
-53.42495226179624
 30
14.59875992006226
 10
-3.681159936124499
 20
-53.3482334519442
 30
14.54289165780117
 10
-4.306861143794513
 20
-53.11747125002104
 30
14.37489102816285
 10
-4.654319506306916
 20
-52.96280801893603
 30
14.26354076029824
 10
-5.598593265294368
 20
-52.49822986159079
 30
13.93200968273112
 10
-6.088979825123248
 20
-52.18727203594796
 30
13.71708656387089
 10
-6.96038885580614
 20
-51.56475992848649
 30
13.2961319972184
 10
-7.332107916468781
 20
-51.25306145751108
 30
13.09165282439385
 10
-8.000510102910134
 20
-50.62932508677871
 30
12.69421199864081
 10
-8.294476768700902
 20
-50.31725032389942
 30
12.50226348469666
 10
-9.092518716583823
 20
-49.38058856844656
 30
11.94763105782532
 10
-9.51293867578831
 20
-48.75563862581873
 30
11.60675643703183
 10
-10.20817926366871
 20
-47.50547076246672
 30
11.00026696761005
 10
-10.47888032229712
 20
-46.88020517252778
 30
10.7370064603345
 10
-11.11112491319877
 20
-45.00342476684055
 30
10.09474662231142
 10
-11.30787086608762
 20
-43.75196326181411
 30
9.855559674891646
 10
-11.3080964230649
 20
-41.24802806279796
 30
9.855300873952542
 10
-11.11150066927938
 20
-39.99657207270381
 30
10.09436681961329
 10
-10.4786546106033
 20
-38.11980863402812
 30
10.73723479461808
 10
-10.20774602650877
 20
-37.49453964601909
 30
11.00066275856981
 10
-9.512711847996279
 20
-36.2443577994222
 30
11.60693643329201
 10
-9.092943797484393
 20
-35.61940236201541
 30
11.94729838235427
 10
-8.295140776804603
 20
-34.68273611389283
 30
12.50182059693965
 10
-8.001064013658985
 20
-34.3706686634822
 30
12.69387213843343
 10
-7.332151655582265
 20
-33.74694113266515
 30
13.09163730467307
 10
-6.960060873222251
 20
-33.43525176670186
 30
13.29631459895197
 10
-6.088093114268531
 20
-32.81274831441946
 30
13.71749071460443
 10
-5.597863734405173
 20
-32.50179873012415
 30
13.93228256152989
 10
-4.654181140807633
 20
-32.03721444837392
 30
14.26358096164389
 10
-4.307086878230383
 20
-31.88255043054373
 30
14.37481678869931
 10
-3.681709343696797
 20
-31.65178484221715
 30
14.54275094608512
 10
-3.456825494473686
 20
-31.5750676481478
 30
14.59860169564522
 10
-2.944258988484429
 20
-31.42256937853578
 30
14.71054563828506
 10
-2.663288815331411
 20
-31.34665241300725
 30
14.7660151045745
 10
-2.028893228012892
 20
-31.21317914522523
 30
14.86486332355765
 10
-1.723965074448581
 20
-31.15404112666613
 30
14.90833070132003
 10
-1.006483308273113
 20
-31.07404725883845
 30
14.96811899737664
 10
-0.6748015427529551
 20
-31.04427862106374
 30
14.99053803119895
 10
-0.0535483640067759
 20
-31.03046078810335
 30
15.00133425630677
 10
0.1730351385419254
 20
-31.03111706542196
 30
15.00096975463693
 10
0.6587896114221318
 20
-31.04924839709503
 30
14.98749582106979
 10
0.8762534831267828
 20
-31.06539183603769
 30
14.97541956015899
 10
1.403252465312313
 20
-31.11458557192962
 30
14.93837096863416
 10
1.65206041302123
 20
-31.15153941179224
 30
14.91039607561762
 10
2.092278902299643
 20
-31.22568033807077
 30
14.85501880628419
 10
2.277620706141483
 20
-31.26383879621892
 30
14.82709793875864
 10
2.793576285187994
 20
-31.37899457188462
 30
14.74169220290451
 10
3.06943664471457
 20
-31.45696611187854
 30
14.68487171975901
 10
3.826116054702691
 20
-31.69197681961179
 30
14.51304347484442
 10
4.222080823333557
 20
-31.85014452912393
 30
14.39837754658891
 10
4.932786499015731
 20
-32.16687299275638
 30
14.17063371229405
 10
5.238340519452402
 20
-32.32571599974555
 30
14.05887452761224
 10
6.085171595015643
 20
-32.80306393495415
 30
13.7236782308075
 10
6.542201646264329
 20
-33.12198082606152
 30
13.5058814703552
 10
7.353001753483299
 20
-33.76060709887296
 30
13.0821482136895
 10
7.702118004516578
 20
-34.08018747454039
 30
12.87694343639993
 10
8.016435138920238
 20
-34.40000000000001
 30
12.67820048995459
  0
ARC
  5
2CD
330
2C4
100
AcDbEntity
  8
Predefinito
 62
     9
420
 12632256
100
AcDbCircle
 10
0.0000000000000707
 20
-0.0000000000000031
 30
-34.40000000000003
 40
14.99999999999999
210
-2.546748471335980E-15
220
1.0
230
-2.819428847225430E-16
100
AcDbArc
 50
122.3051965117208
 51
180.0
  0
ARC
  5
2CE
330
2C4
100
AcDbEntity
  8
Predefinito
 62
     9
420
 12632256
100
AcDbCircle
 10
0.0000000000001735
 20
0.0000000000000273
 30
-34.40000000000006
 40
15.00000000000004
210
-3.920993733274392E-15
220
1.0
230
8.078314429946289E-16
100
AcDbArc
 50
180.0
 51
242.9994269973185
  0
LINE
  5
2CF
330
2C4
100
AcDbEntity
  8
Predefinito
 62
     9
420
 12632256
100
AcDbLine
 10
15.0
 20
-34.39999999999999
 30
0.0
 11
15.00000000000001
 21
-25.0
 31
0.0000000000000007
  0
LINE
  5
2D0
330
2C4
100
AcDbEntity
  8
Predefinito
 62
     9
420
 12632256
100
AcDbLine
 10
15.00000000000001
 20
-60.0
 30
0.0000000000000007
 11
15.00000000000001
 21
-50.59999999999999
 31
0.0
  0
ARC
  5
2D1
330
2C4
100
AcDbEntity
  8
Predefinito
 62
     9
420
 12632256
100
AcDbCircle
 10
0.000000000000001
 20
0.0
 30
-25.0
 40
14.0
210
-2.537652627714643E-16
220
1.0
230
-1.736332387796077E-64
100
AcDbArc
 50
0.000000000000007
 51
180.0
  0
ARC
  5
2D2
330
2C4
100
AcDbEntity
  8
Predefinito
 62
     9
420
 12632256
100
AcDbCircle
 10
0.000000000000001
 20
0.0
 30
-25.0
 40
14.0
210
-2.537652627714643E-16
220
1.0
230
0.0
100
AcDbArc
 50
180.0
 51
0.0
  0
ARC
  5
2D3
330
2C4
100
AcDbEntity
  8
Predefinito
 62
     9
420
 12632256
100
AcDbCircle
 10
-0.0000000000000053
 20
0.0
 30
-24.0
 40
14.0
210
0.0
220
1.0
230
0.0
100
AcDbArc
 50
180.0
 51
0.0
  0
ARC
  5
2D4
330
2C4
100
AcDbEntity
  8
Predefinito
 62
     9
420
 12632256
100
AcDbCircle
 10
-0.0000000000000053
 20
0.0
 30
-24.0
 40
14.0
210
0.0
220
1.0
230
0.0
100
AcDbArc
 50
0.000000000000007
 51
180.0
  0
LINE
  5
2D5
330
2C4
100
AcDbEntity
  8
Predefinito
 62
     9
420
 12632256
100
AcDbLine
 10
14.00000000000001
 20
-25.0
 30
0.0000000000000007
 11
14.00000000000001
 21
-24.0
 31
0.0000000000000007
  0
SPLINE
  5
2D6
330
2C4
100
AcDbEntity
  8
Predefinito
 62
     9
420
 12632256
100
AcDbSpline
210
1.220139205238927E-13
220
1.0
230
-5.925086327192125E-15
 70
     8
 71
     3
 72
     8
 73
     4
 74
     0
 42
0.000000001
 43
0.0000000001
 40
-0.0445179516821725
 40
-0.0445179516821725
 40
-0.0445179516821725
 40
-0.0445179516821725
 40
-0.0184468186931627
 40
-0.0184468186931627
 40
-0.0184468186931627
 40
-0.0184468186931627
 10
8.016435138920238
 20
-34.40000000000001
 30
12.67820048995459
 10
7.630744062888644
 20
-34.40000000000001
 30
3.996375499357358
 10
7.23150638818082
 20
-34.40000000000001
 30
-4.684864938324496
 10
6.809991157201684
 20
-34.40000000000001
 30
-13.36502975824729
  0
SPLINE
  5
2D7
330
2C4
100
AcDbEntity
  8
Predefinito
 62
     9
420
 12632256
100
AcDbSpline
210
0.0
220
1.0
230
0.0
 70
     8
 71
     3
 72
     8
 73
     4
 74
     0
 42
0.000000001
 43
0.0000000001
 40
0.0184468186931627
 40
0.0184468186931627
 40
0.0184468186931627
 40
0.0184468186931627
 40
0.0445179516821725
 40
0.0445179516821725
 40
0.0445179516821725
 40
0.0445179516821725
 10
6.809991157201653
 20
-50.59999999999999
 30
-13.3650297582473
 10
7.231506287683741
 20
-50.59999999999999
 30
-4.684867007837068
 10
7.630743872517274
 20
-50.59999999999999
 30
3.996371359819354
 10
8.016435138920244
 20
-50.59999999999999
 30
12.6782004899546
  0
ARC
  5
2D8
330
2C4
100
AcDbEntity
  8
Predefinito
 62
     9
420
 12632256
100
AcDbCircle
 10
0.0000000000000021
 20
0.0
 30
-24.0
 40
15.0
210
-2.368475785867001E-16
220
1.0
230
0.0
100
AcDbArc
 50
0.000000000000007
 51
180.0
  0
ARC
  5
2D9
330
2C4
100
AcDbEntity
  8
Predefinito
 62
     9
420
 12632256
100
AcDbCircle
 10
0.0000000000000021
 20
0.0
 30
-24.0
 40
15.0
210
-2.368475785867001E-16
220
1.0
230
0.0
100
AcDbArc
 50
180.0
 51
0.0
  0
ARC
  5
2DA
330
2C4
100
AcDbEntity
  8
Predefinito
 62
     9
420
 12632256
100
AcDbCircle
 10
-0.0000000000000131
 20
0.0
 30
38.99999999999999
 40
15.0
210
-4.736951571734001E-16
220
1.0
230
-1.556998293694241E-48
100
AcDbArc
 50
180.0
 51
0.0
  0
ARC
  5
2DB
330
2C4
100
AcDbEntity
  8
Predefinito
 62
     9
420
 12632256
100
AcDbCircle
 10
-0.0000000000000039
 20
0.0
 30
39.0
 40
15.0
210
-2.368475785867001E-16
220
1.0
230
7.784991468471206E-49
100
AcDbArc
 50
0.000000000000007
 51
180.0
  0
LINE
  5
2DC
330
2C4
100
AcDbEntity
  8
Predefinito
 62
     9
420
 12632256
100
AcDbLine
 10
15.0
 20
-24.0
 30
0.0000000000000007
 11
14.99999999999999
 21
39.0
 31
0.0000000000000007
  0
ARC
  5
2DD
330
2C4
100
AcDbEntity
  8
Predefinito
 62
     9
420
 12632256
100
AcDbCircle
 10
0.0000000000000053
 20
0.0
 30
40.0
 40
15.0
210
-3.813545953301086E-65
220
1.0
230
1.556998293694241E-48
100
AcDbArc
 50
0.0
 51
180.0
  0
ARC
  5
2DE
330
2C4
100
AcDbEntity
  8
Predefinito
 62
     9
420
 12632256
100
AcDbCircle
 10
0.0000000000000148
 20
0.0
 30
40.0
 40
15.0
210
2.368475785867001E-16
220
1.0
230
-7.784991468471206E-49
100
AcDbArc
 50
180.0
 51
0.0
  0
ARC
  5
2DF
330
2C4
100
AcDbEntity
  8
Predefinito
 62
     9
420
 12632256
100
AcDbCircle
 10
-0.0000000000000071
 20
0.0
 30
60.0
 40
15.0
210
-2.368475785867001E-16
220
1.0
230
0.0
100
AcDbArc
 50
180.0
 51
0.0
  0
ARC
  5
2E0
330
2C4
100
AcDbEntity
  8
Predefinito
 62
     9
420
 12632256
100
AcDbCircle
 10
-0.000000000000008
 20
0.0
 30
60.0
 40
15.0
210
-2.368475785867001E-16
220
1.0
230
0.0
100
AcDbArc
 50
0.0
 51
180.0
  0
LINE
  5
2E1
330
2C4
100
AcDbEntity
  8
Predefinito
 62
     9
420
 12632256
100
AcDbLine
 10
14.99999999999999
 20
40.0
 30
0.0000000000000007
 11
14.99999999999999
 21
60.0
 31
0.0000000000000007
  0
ARC
  5
2E2
330
2C4
100
AcDbEntity
  8
Predefinito
 62
     9
420
 12632256
100
AcDbCircle
 10
0.0000000000000053
 20
0.0
 30
39.0
 40
14.0
210
0.0
220
1.0
230
0.0
100
AcDbArc
 50
0.0
 51
180.0
  0
ARC
  5
2E3
330
2C4
100
AcDbEntity
  8
Predefinito
 62
     9
420
 12632256
100
AcDbCircle
 10
0.0000000000000053
 20
0.0
 30
39.0
 40
14.0
210
0.0
220
1.0
230
0.0
100
AcDbArc
 50
180.0
 51
0.0
  0
ARC
  5
2E4
330
2C4
100
AcDbEntity
  8
Predefinito
 62
     9
420
 12632256
100
AcDbCircle
 10
0.0000000000000053
 20
0.0
 30
40.0
 40
14.0
210
0.0
220
1.0
230
0.0
100
AcDbArc
 50
180.0
 51
0.0
  0
ARC
  5
2E5
330
2C4
100
AcDbEntity
  8
Predefinito
 62
     9
420
 12632256
100
AcDbCircle
 10
0.0000000000000053
 20
0.0
 30
40.0
 40
14.0
210
0.0
220
1.0
230
0.0
100
AcDbArc
 50
0.0
 51
180.0
  0
LINE
  5
2E6
330
2C4
100
AcDbEntity
  8
Predefinito
 62
     9
420
 12632256
100
AcDbLine
 10
13.99999999999999
 20
39.0
 30
0.0000000000000007
 11
13.99999999999999
 21
40.0
 31
0.0000000000000007
  0
SPLINE
  5
2E7
330
2C4
100
AcDbEntity
  8
Predefinito
 62
     9
420
 12632256
100
AcDbSpline
 70
     0
 71
     3
 72
    50
 73
    46
 74
     0
 42
0.000000001
 43
0.0000000001
 40
-0.0291663155903855
 40
-0.0291663155903855
 40
-0.0291663155903855
 40
-0.0291663155903855
 40
-0.0287070133466747
 40
-0.0287070133466747
 40
-0.0282477111029639
 40
-0.0282477111029639
 40
-0.0273291066155422
 40
-0.0273291066155422
 40
-0.0254918976406989
 40
-0.0254918976406989
 40
-0.0236626387136721
 40
-0.0236626387136721
 40
-0.0218333797866453
 40
-0.0218333797866453
 40
-0.0200045193471743
 40
-0.0200045193471743
 40
-0.0181756589077032
 40
-0.0181756589077032
 40
-0.0163808473973166
 40
-0.0163808473973166
 40
-0.0154834416421233
 40
-0.0154834416421233
 40
-0.01458603588693
 40
-0.01458603588693
 40
-0.0136903702525499
 40
-0.0136903702525499
 40
-0.0127947046181699
 40
-0.0127947046181699
 40
-0.0110033733494099
 40
-0.0110033733494099
 40
-0.0091719689129333
 40
-0.0091719689129333
 40
-0.0073405644764567
 40
-0.0073405644764567
 40
-0.0055096759984725
 40
-0.0055096759984725
 40
-0.0036787875204883
 40
-0.0036787875204883
 40
-0.0018393937602442
 40
-0.0018393937602442
 40
-0.0009196968801221
 40
-0.0009196968801221
 40
-0.000459848440061
 40
-0.000459848440061
 40
0.0
 40
0.0
 40
0.0
 40
0.0
 10
9.099929341984584
 20
-0.0358604362484998
 30
11.92439876769006
 10
9.098505785413975
 20
-0.3971015577197437
 30
11.92548376746928
 10
9.08005560299516
 20
-0.6627268518099501
 30
11.94066238175358
 10
9.022989811153066
 20
-1.213371955099376
 30
11.98573390205838
 10
8.987719650900425
 20
-1.440403573296992
 30
12.01222787794937
 10
8.874040225197906
 20
-2.058367797591921
 30
12.0985852425251
 10
8.784243684346526
 20
-2.397327754763858
 30
12.1631692438332
 10
8.50265326501335
 20
-3.303839786359175
 30
12.3610544935773
 10
8.294769454570245
 20
-3.772793704871636
 30
12.49939793837816
 10
7.856204452527628
 20
-4.616845507040661
 30
12.7773030526471
 10
7.625670567500849
 20
-4.983903849645754
 30
12.91766512926577
 10
7.128657321252463
 20
-5.672071401412023
 30
13.19916712493461
 10
6.864037849883056
 20
-5.989032253088327
 30
13.34036161551105
 10
6.28823410017027
 20
-6.591021107691768
 30
13.62239065191676
 10
5.97755993968044
 20
-6.875514716804816
 30
13.76322494962024
 10
5.285739847685974
 20
-7.420571387437539
 30
14.04338501786568
 10
4.906833006453964
 20
-7.680430636951345
 30
14.18289414930612
 10
4.033312883703522
 20
-8.17245175725247
 30
14.45520829129945
 10
3.549895349419418
 20
-8.406161694995275
 30
14.58881256823913
 10
2.590911631614985
 20
-8.72989145268834
 30
14.77626014571017
 10
2.237492938751713
 20
-8.83227841462666
 30
14.83646839905798
 10
1.348588632711483
 20
-9.010928106702726
 30
14.94365252104523
 10
0.7310009193465692
 20
-9.101474363550274
 30
15.00061246078486
 10
-0.7658064085859665
 20
-9.098492413561981
 30
14.99935479836513
 10
-1.385664696977071
 20
-9.005162955840946
 30
14.9410293074887
 10
-2.268483364871756
 20
-8.824228563279553
 30
14.83221976499305
 10
-2.615634955653173
 20
-8.722410567979455
 30
14.77225068319318
 10
-3.566037592870473
 20
-8.398889524024751
 30
14.5845151964269
 10
-4.049673141942089
 20
-8.164092414357762
 30
14.451295731596
 10
-4.916208433730979
 20
-7.674249948633851
 30
14.17977794109742
 10
-5.293846419433384
 20
-7.414792867719698
 30
14.04010480284806
 10
-5.985135185778519
 20
-6.868924223755165
 30
13.75981653278225
 10
-6.295673010834136
 20
-6.583938291402724
 30
13.61893062733768
 10
-6.871118908236307
 20
-5.980917082762591
 30
13.33687577627286
 10
-7.135510498708806
 20
-5.663469251423582
 30
13.19570692055679
 10
-7.632007853664428
 20
-4.974218547732748
 30
12.91426066555024
 10
-7.862178988778245
 20
-4.60666842147156
 30
12.77391172881255
 10
-8.299752175410008
 20
-3.761843148993774
 30
12.49602609605185
 10
-8.50690739856968
 20
-3.293509703382381
 30
12.35771341875143
 10
-8.788527262850018
 20
-2.381797317924083
 30
12.1598846214954
 10
-8.878207860937724
 20
-2.041179065432428
 30
12.0954186569421
 10
-8.991523453957715
 20
-1.416775450352789
 30
12.00955685713907
 10
-9.026441679557847
 20
-1.188377492323701
 30
11.98338522186066
 10
-9.082549132810632
 20
-0.6294376131131075
 30
11.93920747544778
 10
-9.100000000000003
 20
-0.3604218570591952
 30
11.92481032735419
 10
-9.100000000000003
 20
0.0000000000000014
 30
11.9243448457347
  0
SPLINE
  5
2E8
330
2C4
100
AcDbEntity
  8
Predefinito
 62
     9
420
 12632256
100
AcDbSpline
 70
     0
 71
     3
 72
    50
 73
    46
 74
     0
 42
0.000000001
 43
0.0000000001
 40
-0.058332631180771
 40
-0.058332631180771
 40
-0.058332631180771
 40
-0.058332631180771
 40
-0.057873131338851
 40
-0.057873131338851
 40
-0.0574136314969311
 40
-0.0574136314969311
 40
-0.0564946318130912
 40
-0.0564946318130912
 40
-0.0546566324454113
 40
-0.0546566324454113
 40
-0.0528273864802045
 40
-0.0528273864802045
 40
-0.0509981405149977
 40
-0.0509981405149977
 40
-0.0491692611538257
 40
-0.0491692611538257
 40
-0.0473403817926537
 40
-0.0473403817926537
 40
-0.0455454001111102
 40
-0.0455454001111102
 40
-0.0446479092703384
 40
-0.0446479092703384
 40
-0.0437504184295667
 40
-0.0437504184295667
 40
-0.0428550848474351
 40
-0.0428550848474351
 40
-0.0419597512653035
 40
-0.0419597512653035
 40
-0.0401690841010403
 40
-0.0401690841010403
 40
-0.038337946048303
 40
-0.038337946048303
 40
-0.0365068079955656
 40
-0.0365068079955656
 40
-0.0346761805576959
 40
-0.0346761805576959
 40
-0.0328455531198261
 40
-0.0328455531198261
 40
-0.0310059343551058
 40
-0.0310059343551058
 40
-0.0300861249727457
 40
-0.0300861249727457
 40
-0.0296262202815656
 40
-0.0296262202815656
 40
-0.0291663155903855
 40
-0.0291663155903855
 40
-0.0291663155903855
 40
-0.0291663155903855
 10
-9.100000000000003
 20
0.0000000000000014
 30
11.9243448457347
 10
-9.100000000000003
 20
0.3612918729573732
 30
11.92387824049743
 10
-9.08246321488274
 20
0.6322607773205621
 30
11.93761516350788
 10
-9.025253136580904
 20
1.19820597597937
 30
11.98117058912803
 10
-8.989849302046988
 20
1.427383077934744
 30
12.00716574147764
 10
-8.875702023633947
 20
2.05211239614618
 30
12.09301091121026
 10
-8.786338431906097
 20
2.389395347985822
 30
12.15793943582091
 10
-8.507384860659537
 20
3.290929277344969
 30
12.35662245004905
 10
-8.302035522320946
 20
3.7567946059144
 30
12.49534671667877
 10
-7.86505992514926
 20
4.601735764179342
 30
12.77375439716163
 10
-7.634289792707812
 20
4.970834442409958
 30
12.91426178189702
 10
-7.136373461354957
 20
5.662486160067899
 30
13.19604937781598
 10
-6.87091722715282
 20
5.981241402358616
 30
13.33737993275074
 10
-6.293664348760456
 20
6.585929796369597
 30
13.61971354947751
 10
-5.982455730573584
 20
6.871293340430143
 30
13.76072073930338
 10
-5.290054745785553
 20
7.41753122845493
 30
14.04125644899019
 10
-4.911091649882903
 20
7.677702626128352
 30
14.1809634569937
 10
-4.037959622593767
 20
8.170154303005202
 30
14.45371617241954
 10
-3.555012843501812
 20
8.40394979151602
 30
14.58755934849064
 10
-2.597115634756156
 20
8.728036003801279
 30
14.77542097734531
 10
-2.244120095601966
 20
8.830581867864407
 30
14.83578322858071
 10
-1.35593023306232
 20
9.009811559161921
 30
14.94328425494653
 10
-0.7390705163082322
 20
9.100891244990105
 30
15.00045464818888
 10
0.759054660836151
 20
9.099097872686212
 30
14.99953455738752
 10
1.381719992437336
 20
9.005839629821557
 30
14.94118268379497
 10
2.267349484595853
 20
8.82459199568277
 30
14.83217121181098
 10
2.614732944264166
 20
8.722705812027133
 30
14.77223096108965
 10
3.566980689100235
 20
8.398592082935997
 30
14.58432751956126
 10
4.051183293661727
 20
8.163374904759037
 30
14.45096203816967
 10
4.918625800230203
 20
7.672743585276812
 30
14.17911169147639
 10
5.296446465450328
 20
7.412961360461224
 30
14.03924611820054
 10
5.988192208340179
 20
6.866286869119754
 30
13.7585697612994
 10
6.298884734046697
 20
6.580890476036907
 30
13.61749036389736
 10
6.874552171283807
 20
5.976997886056908
 30
13.33504700258836
 10
7.138990318511746
 20
5.659124239560932
 30
13.1936827071911
 10
7.635677928492843
 20
4.96863084751904
 30
12.91185951635065
 10
7.865956253908208
 20
4.600343165344849
 30
12.77132374760426
 10
8.303925575388355
 20
3.752795591364557
 30
12.49309907326733
 10
8.511482033458687
 20
3.282424785398656
 30
12.35461523186134
 10
8.79322650101047
 20
2.364651649048861
 30
12.15669998984448
 10
8.882820173777628
 20
2.021686915431177
 30
12.09223192194005
 10
8.995390214947824
 20
1.392258214824037
 30
12.00654654828038
 10
9.029810457705057
 20
1.163539425970475
 30
11.9805817033472
 10
9.084940907185267
 20
0.5959443017757932
 30
11.93705063546814
 10
9.101356008523851
 20
0.3261698695721904
 30
11.92331139756928
 10
9.099929341984584
 20
-0.0358604362484998
 30
11.92439876769006
  0
SPLINE
  5
2E9
330
2C4
100
AcDbEntity
  8
Predefinito
 62
     9
420
 12632256
100
AcDbSpline
 70
     0
 71
     3
 72
    50
 73
    46
 74
     0
 42
0.000000001
 43
0.0000000001
 40
-0.0291663155903855
 40
-0.0291663155903855
 40
-0.0291663155903855
 40
-0.0291663155903855
 40
-0.0287070133466515
 40
-0.0287070133466515
 40
-0.0282477111029176
 40
-0.0282477111029176
 40
-0.0273291066154497
 40
-0.0273291066154497
 40
-0.0254918976405139
 40
-0.0254918976405139
 40
-0.023662638713395
 40
-0.023662638713395
 40
-0.0218333797862761
 40
-0.0218333797862761
 40
-0.0200045193467129
 40
-0.0200045193467129
 40
-0.0181756589071498
 40
-0.0181756589071498
 40
-0.0163808473875141
 40
-0.0163808473875141
 40
-0.0154834416276963
 40
-0.0154834416276963
 40
-0.0145860358678784
 40
-0.0145860358678784
 40
-0.0136903702384
 40
-0.0136903702384
 40
-0.0127947046089215
 40
-0.0127947046089215
 40
-0.0110033733499645
 40
-0.0110033733499645
 40
-0.0091719689133957
 40
-0.0091719689133957
 40
-0.0073405644768268
 40
-0.0073405644768268
 40
-0.0055096759987503
 40
-0.0055096759987503
 40
-0.0036787875206738
 40
-0.0036787875206738
 40
-0.0018393937603369
 40
-0.0018393937603369
 40
-0.0009196968801685
 40
-0.0009196968801685
 40
-0.0004598484400842
 40
-0.0004598484400842
 40
0.0
 40
0.0
 40
0.0
 40
0.0
 10
9.099929341984584
 20
0.035860436248527
 30
-11.92439876769006
 10
9.098505785413975
 20
0.3971015577195877
 30
-11.92548376746927
 10
9.080055602995172
 20
0.6627268518097174
 30
-11.94066238175357
 10
9.022989811153133
 20
1.21337195509883
 30
-11.98573390205833
 10
8.98771965090051
 20
1.440403573296457
 30
-12.0122278779493
 10
8.874040225198073
 20
2.058367797591176
 30
-12.09858524252497
 10
8.784243684346752
 20
2.397327754763022
 30
-12.16316924383303
 10
8.502653265013778
 20
3.30383978635804
 30
-12.36105449357701
 10
8.29476945457079
 20
3.772793704870421
 30
-12.4993979383778
 10
7.856204452528448
 20
4.616845507039253
 30
-12.7773030526466
 10
7.625670567501831
 20
4.983903849644243
 30
-12.91766512926518
 10
7.128657321253804
 20
5.672071401410332
 30
-13.19916712493388
 10
6.864037849884594
 20
5.989032253086555
 30
-13.34036161551025
 10
6.288234100172302
 20
6.59102110768982
 30
-13.62239065191581
 10
5.977559939682758
 20
6.875514716802784
 30
-13.76322494961922
 10
5.285739847689022
 20
7.420571387435354
 30
-14.04338501786451
 10
4.906833006457435
 20
7.680430636949096
 30
-14.1828941493049
 10
4.033312881500465
 20
8.17245175849367
 30
-14.45520829198638
 10
3.549895344689792
 20
8.40616169739972
 30
-14.58881256960439
 10
2.590911619309818
 20
8.729891456438361
 30
-14.776260147895
 10
2.237492923612052
 20
8.832278418726784
 30
-14.83646840143444
 10
1.34858860704893
 20
9.010928110802944
 30
-14.94365252358869
 10
0.7310009249812935
 20
9.101474363342023
 30
-15.00061246070775
 10
-0.7658064009380338
 20
9.098492413796285
 30
-14.99935479845446
 10
-1.38566472564502
 20
9.005162951096283
 30
-14.94102930443996
 10
-2.268483380039681
 20
8.824228559040035
 30
-14.83221976263483
 10
-2.615634968851846
 20
8.722410563917665
 30
-14.77225068081934
 10
-3.566037597987966
 20
8.398889521420577
 30
-14.58451519494935
 10
-4.049673144313234
 20
8.164092413017682
 30
-14.45129573085318
 10
-4.916208433734401
 20
7.674249948631628
 30
-14.1797779410962
 10
-5.293846419436414
 20
7.414792867717526
 30
-14.04010480284691
 10
-5.985135185780841
 20
6.868924223753132
 30
-13.75981653278123
 10
-6.295673010836188
 20
6.583938291400755
 30
-13.61893062733674
 10
-6.871118908237857
 20
5.980917082760803
 30
-13.33687577627206
 10
-7.135510498710137
 20
5.663469251421899
 30
-13.19570692055606
 10
-7.632007853665393
 20
4.97421854773126
 30
-12.91426066554966
 10
-7.862178988779059
 20
4.606668421470165
 30
-12.77391172881203
 10
-8.299752175410548
 20
3.761843148992575
 30
-12.4960260960515
 10
-8.506907398570098
 20
3.293509703381268
 30
-12.35771341875115
 10
-8.788527262850234
 20
2.381797317923278
 30
-12.15988462149523
 10
-8.87820786093789
 20
2.04117906543169
 30
-12.09541865694196
 10
-8.991523453957798
 20
1.416775450352254
 30
-12.009556857139
 10
-9.026441679557916
 20
1.18837749232316
 30
-11.98338522186061
 10
-9.082549132810644
 20
0.6294376131128491
 30
-11.93920747544777
 10
-9.100000000000003
 20
0.3604218570590261
 30
-11.92481032735419
 10
-9.100000000000003
 20
-0.0000000000000014
 30
-11.9243448457347
  0
SPLINE
  5
2EA
330
2C4
100
AcDbEntity
  8
Predefinito
 62
     9
420
 12632256
100
AcDbSpline
 70
     0
 71
     3
 72
    50
 73
    46
 74
     0
 42
0.000000001
 43
0.0000000001
 40
-0.058332631180771
 40
-0.058332631180771
 40
-0.058332631180771
 40
-0.058332631180771
 40
-0.0578731313385107
 40
-0.0578731313385107
 40
-0.0574136314962504
 40
-0.0574136314962504
 40
-0.0564946318117297
 40
-0.0564946318117297
 40
-0.0546566324426884
 40
-0.0546566324426884
 40
-0.0528273864761268
 40
-0.0528273864761268
 40
-0.0509981405095652
 40
-0.0509981405095652
 40
-0.0491692611470387
 40
-0.0491692611470387
 40
-0.0473403817845122
 40
-0.0473403817845122
 40
-0.0455454000922476
 40
-0.0455454000922476
 40
-0.0446479092461153
 40
-0.0446479092461153
 40
-0.0437504183999829
 40
-0.0437504183999829
 40
-0.0428550848272843
 40
-0.0428550848272843
 40
-0.0419597512545856
 40
-0.0419597512545856
 40
-0.0401690841091883
 40
-0.0401690841091883
 40
-0.0383379460550952
 40
-0.0383379460550952
 40
-0.0365068080010022
 40
-0.0365068080010022
 40
-0.0346761805617768
 40
-0.0346761805617768
 40
-0.0328455531225514
 40
-0.0328455531225514
 40
-0.0310059343564684
 40
-0.0310059343564684
 40
-0.030086124973427
 40
-0.030086124973427
 40
-0.0296262202819062
 40
-0.0296262202819062
 40
-0.0291663155903855
 40
-0.0291663155903855
 40
-0.0291663155903855
 40
-0.0291663155903855
 10
-9.100000000000003
 20
-0.0000000000000014
 30
-11.9243448457347
 10
-9.100000000000003
 20
-0.361291872944723
 30
-11.92387824049745
 10
-9.08246321488372
 20
-0.6322607773015878
 30
-11.93761516350692
 10
-9.025253136585931
 20
-1.198205975938918
 30
-11.98117058912442
 10
-8.989849302053111
 20
-1.42738307789546
 30
-12.00716574147301
 10
-8.875702023645673
 20
-2.052112396093484
 30
-12.0930109112015
 10
-8.78633843192127
 20
-2.389395347929053
 30
-12.15793943580968
 10
-8.50738486068782
 20
-3.29092927726902
 30
-12.35662245002978
 10
-8.302035522357407
 20
-3.756794605832456
 30
-12.49534671665456
 10
-7.865059925204841
 20
-4.601735764083235
 30
-12.77375439712719
 10
-7.634289792774288
 20
-4.970834442306795
 30
-12.91426178185745
 10
-7.136373461446153
 20
-5.662486159952024
 30
-13.19604937776632
 10
-6.870917227257835
 20
-5.98124140223686
 30
-13.33737993269608
 10
-6.293664348899141
 20
-6.585929796236048
 30
-13.619713549413
 10
-5.982455730731507
 20
-6.871293340291184
 30
-13.76072073923404
 10
-5.290054745993035
 20
-7.417531228305601
 30
-14.04125644891151
 10
-4.911091650118942
 20
-7.677702625974768
 30
-14.18096345691051
 10
-4.037959620652132
 20
-8.170154304120352
 30
-14.45371617303534
 10
-3.555012839021206
 20
-8.403949793819962
 30
-14.58755934980042
 10
-2.597115622679767
 20
-8.728036007493076
 30
-14.77542097949819
 10
-2.24412008068113
 20
-8.830581871921858
 30
-14.83578323093418
 10
-1.355930207585539
 20
-9.009811563256374
 30
-14.94328425748255
 10
-0.7390705218049702
 20
-9.100891244784101
 30
-15.00045464812816
 10
0.7590546488160934
 20
-9.099097872912662
 30
-14.99953455746076
 10
1.381720051533266
 20
-9.00583962008499
 30
-14.94118267750405
 10
2.267349516617466
 20
-8.824591986771749
 30
-14.83217120687464
 10
2.61473297178371
 20
-8.722705803563008
 30
-14.77223095614696
 10
3.566980699922834
 20
-8.398592077447084
 30
-14.58432751645042
 10
4.051183298819029
 20
-8.163374901861895
 30
-14.45096203656325
 10
4.918625800463968
 20
-7.672743585124269
 30
-14.17911169139308
 10
5.296446465657806
 20
-7.412961360311623
 30
-14.03924611812175
 10
5.988192208497922
 20
-6.866286868980715
 30
-13.75856976123
 10
6.298884734185086
 20
-6.580890475903428
 30
-13.61749036383281
 10
6.874552171388439
 20
-5.976997885935444
 30
-13.33504700253367
 10
7.138990318602654
 20
-5.659124239445325
 30
-13.19368270714143
 10
7.63567792855923
 20
-4.968630847415965
 30
-12.91185951631108
 10
7.86595625396374
 20
-4.600343165248825
 30
-12.77132374756984
 10
8.30392557542508
 20
-3.752795591281983
 30
-12.49309907324317
 10
8.511482033486603
 20
-3.282424785323839
 30
-12.3546152318424
 10
8.793226501026126
 20
-2.364651648989787
 30
-12.15669998983315
 10
8.882820173789337
 20
-2.021686915377626
 30
-12.0922319219313
 10
8.99539021495381
 20
-1.392258214784591
 30
-12.00654654827574
 10
9.029810457709488
 20
-1.163539425934555
 30
-11.98058170334385
 10
9.08494090718663
 20
-0.5959443017520404
 30
-11.9370506354669
 10
9.101356008523803
 20
-0.3261698695594728
 30
-11.92331139756932
 10
9.099929341984584
 20
0.035860436248527
 30
-11.92439876769006
  0
LINE
  5
2EB
330
2C4
100
AcDbEntity
  8
Predefinito
 62
     9
420
 12632256
100
AcDbLine
 10
-9.100000000000003
 20
0.0000000000000014
 30
11.9243448457347
 11
-9.100000000000003
 21
-0.0000000000000014
 31
-11.9243448457347
  0
ARC
  5
2EC
330
2C4
100
AcDbEntity
  8
Predefinito
 62
     9
420
 12632256
100
AcDbCircle
 10
0.0
 20
0.0
 30
-42.5
 40
15.0
210
-1.224667021809839E-16
220
1.0
230
0.0
100
AcDbArc
 50
315.3465141964856
 51
41.07365518191392
  0
LINE
  5
2ED
330
2C4
100
AcDbEntity
  8
Predefinito
 62
     9
420
 12632256
100
AcDbLine
 10
0.0000000000000073
 20
-59.99999999999999
 30
-15.0
 11
0.0000000000000065
 21
-53.03071756282465
 31
-15.0
  0
LINE
  5
2EE
330
2C4
100
AcDbEntity
  8
Predefinito
 62
     9
420
 12632256
100
AcDbLine
 10
0.0000000000000039
 20
-31.969486916186
 30
-15.0
 11
0.0000000000000031
 21
-25.00000000000001
 31
-15.0
  0
LINE
  5
2EF
330
2C4
100
AcDbEntity
  8
Predefinito
 62
     9
420
 12632256
100
AcDbLine
 10
-14.99999999999999
 20
-60.0
 30
0.0
 11
-14.99999999999999
 21
-25.0
 31
0.0
  0
LINE
  5
2F0
330
2C4
100
AcDbEntity
  8
Predefinito
 62
     9
420
 12632256
100
AcDbLine
 10
0.0000000000000073
 20
-59.99999999999999
 30
15.0
 11
0.0000000000000066
 21
-53.96773392813905
 31
15.0
  0
LINE
  5
2F1
330
2C4
100
AcDbEntity
  8
Predefinito
 62
     9
420
 12632256
100
AcDbLine
 10
0.0000000000000038
 20
-31.03226871529753
 30
15.0
 11
0.0000000000000031
 21
-25.0
 31
15.0
  0
ARC
  5
2F2
330
2C4
100
AcDbEntity
  8
Predefinito
 62
     9
420
 12632256
100
AcDbCircle
 10
0.0
 20
-42.49999999999999
 30
0.0213893382127992
 40
11.00066841681915
100
AcDbArc
 50
47.41793319701857
 51
312.5820668029814
  0
LINE
  5
2F3
330
2C4
100
AcDbEntity
  8
Predefinito
 62
     9
420
 12632256
100
AcDbLine
 10
0.0
 20
-31.96873084123449
 30
-14.99938691950442
 11
0.0
 21
-31.03128484921273
 31
14.99888482519235
  0
LINE
  5
2F4
330
2C4
100
AcDbEntity
  8
Predefinito
 62
     9
420
 12632256
100
AcDbLine
 10
-10.67055434020624
 20
-42.49999999999998
 30
-10.54226111340028
 11
-11.30798219872153
 21
-42.49999999999999
 31
9.855430359089013
  0
LINE
  5
2F5
330
2C4
100
AcDbEntity
  8
Predefinito
 62
     9
420
 12632256
100
AcDbLine
 10
0.0
 20
-53.03126572473681
 30
-14.99949680842141
 11
0.0
 21
-53.96871556032703
 31
14.9988979304653
  0
LINE
  5
2F6
330
2C4
100
AcDbEntity
  8
Predefinito
 62
     9
420
 12632256
100
AcDbLine
 10
-14.99999999999999
 20
-60.0
 30
0.0
 11
15.00000000000001
 21
-60.0
 31
0.0
  0
LINE
  5
2F7
330
2C4
100
AcDbEntity
  8
Predefinito
 62
     9
420
 12632256
100
AcDbLine
 10
0.0000000000000073
 20
-60.0
 30
-15.0
 11
0.0000000000000073
 21
-60.0
 31
15.0
  0
LINE
  5
2F8
330
2C4
100
AcDbEntity
  8
Predefinito
 62
     9
420
 12632256
100
AcDbLine
 10
15.0
 20
-25.0
 30
0.0
 11
14.00000000000001
 21
-25.0
 31
0.0
  0
LINE
  5
2F9
330
2C4
100
AcDbEntity
  8
Predefinito
 62
     9
420
 12632256
100
AcDbLine
 10
-13.99999999999999
 20
-25.0
 30
0.0
 11
-14.99999999999999
 21
-25.0
 31
0.0
  0
LINE
  5
2FA
330
2C4
100
AcDbEntity
  8
Predefinito
 62
     9
420
 12632256
100
AcDbLine
 10
0.0000000000000053
 20
-25.0
 30
-15.0
 11
0.0000000000000053
 21
-25.0
 31
-14.0
  0
LINE
  5
2FB
330
2C4
100
AcDbEntity
  8
Predefinito
 62
     9
420
 12632256
100
AcDbLine
 10
0.0000000000000053
 20
-25.0
 30
14.0
 11
0.0000000000000053
 21
-25.0
 31
15.0
  0
CIRCLE
  5
2FC
330
2C4
100
AcDbEntity
  8
Predefinito
 62
     9
420
 12632256
100
AcDbCircle
 10
0.0
 20
0.0
 30
-24.5
 40
14.0
210
-1.224667021809839E-16
220
1.0
230
0.0
  0
LINE
  5
2FD
330
2C4
100
AcDbEntity
  8
Predefinito
 62
     9
420
 12632256
100
AcDbLine
 10
0.0000000000000031
 20
-25.0
 30
-14.0
 11
0.0000000000000029
 21
-24.0
 31
-14.0
  0
LINE
  5
2FE
330
2C4
100
AcDbEntity
  8
Predefinito
 62
     9
420
 12632256
100
AcDbLine
 10
-14.0
 20
-25.0
 30
0.0
 11
-14.0
 21
-24.0
 31
0.0
  0
LINE
  5
2FF
330
2C4
100
AcDbEntity
  8
Predefinito
 62
     9
420
 12632256
100
AcDbLine
 10
0.0000000000000031
 20
-25.0
 30
14.0
 11
0.0000000000000029
 21
-24.0
 31
14.0
  0
LINE
  5
300
330
2C4
100
AcDbEntity
  8
Predefinito
 62
     9
420
 12632256
100
AcDbLine
 10
-15.0
 20
-24.0
 30
0.0
 11
-14.0
 21
-24.0
 31
0.0
  0
LINE
  5
301
330
2C4
100
AcDbEntity
  8
Predefinito
 62
     9
420
 12632256
100
AcDbLine
 10
14.00000000000001
 20
-24.0
 30
0.0
 11
15.00000000000001
 21
-24.0
 31
0.0
  0
LINE
  5
302
330
2C4
100
AcDbEntity
  8
Predefinito
 62
     9
420
 12632256
100
AcDbLine
 10
0.0000000000000071
 20
-24.0
 30
-15.0
 11
0.0000000000000071
 21
-24.0
 31
-14.0
  0
LINE
  5
303
330
2C4
100
AcDbEntity
  8
Predefinito
 62
     9
420
 12632256
100
AcDbLine
 10
0.0000000000000071
 20
-24.0
 30
14.0
 11
0.0000000000000071
 21
-24.0
 31
15.0
  0
LINE
  5
304
330
2C4
100
AcDbEntity
  8
Predefinito
 62
     9
420
 12632256
100
AcDbLine
 10
7.426675993891813
 20
-34.40000000000003
 30
-0.3434146341463418
 11
14.99606836270696
 21
-34.40000000000002
 31
-0.3434146341463418
  0
LINE
  5
305
330
2C4
100
AcDbEntity
  8
Predefinito
 62
     9
420
 12632256
100
AcDbLine
 10
11.09874211124427
 20
-34.40000000000002
 30
-10.09048592458446
 11
11.09874211124427
 21
-34.40000000000002
 31
10.09048596330923
  0
LINE
  5
306
330
2C4
100
AcDbEntity
  8
Predefinito
 62
     9
420
 12632256
100
AcDbLine
 10
11.09874211124426
 20
-50.6
 30
-10.09048678449626
 11
11.09874211124426
 21
-50.6
 31
10.09048678449626
  0
LINE
  5
307
330
2C4
100
AcDbEntity
  8
Predefinito
 62
     9
420
 12632256
100
AcDbLine
 10
7.426675993891804
 20
-50.6
 30
-0.3434146341463418
 11
14.99606836437653
 21
-50.6
 31
-0.3434146341463418
  0
ARC
  5
308
330
2C4
100
AcDbEntity
  8
Predefinito
 62
     9
420
 12632256
100
AcDbCircle
 10
0.0
 20
0.0
 30
7.5
 40
15.0
210
-1.224667021809839E-16
220
1.0
230
0.0
100
AcDbArc
 50
180.0
 51
249.9042321460003
  0
ARC
  5
309
330
2C4
100
AcDbEntity
  8
Predefinito
 62
     9
420
 12632256
100
AcDbCircle
 10
0.0
 20
0.0
 30
7.5
 40
15.0
210
-1.224667021809839E-16
220
1.0
230
0.0
100
AcDbArc
 50
290.0987767380184
 51
69.90140506630134
  0
ARC
  5
30A
330
2C4
100
AcDbEntity
  8
Predefinito
 62
     9
420
 12632256
100
AcDbCircle
 10
0.0
 20
0.0
 30
7.5
 40
15.0
210
-1.224667021809839E-16
220
1.0
230
0.0
100
AcDbArc
 50
110.0981007021488
 51
180.0
  0
LINE
  5
30B
330
2C4
100
AcDbEntity
  8
Predefinito
 62
     9
420
 12632256
100
AcDbLine
 10
0.0000000000000029
 20
-24.0
 30
-15.0
 11
0.0000000000000011
 21
-9.100003760537627
 31
-15.0
  0
LINE
  5
30C
330
2C4
100
AcDbEntity
  8
Predefinito
 62
     9
420
 12632256
100
AcDbLine
 10
-0.0000000000000011
 20
9.099995340203606
 30
-15.0
 11
-0.0000000000000048
 21
38.99999999999999
 31
-15.0
  0
LINE
  5
30D
330
2C4
100
AcDbEntity
  8
Predefinito
 62
     9
420
 12632256
100
AcDbLine
 10
-15.0
 20
-24.0
 30
0.0
 11
-15.0
 21
39.00000000000002
 31
0.0
  0
LINE
  5
30E
330
2C4
100
AcDbEntity
  8
Predefinito
 62
     9
420
 12632256
100
AcDbLine
 10
0.0000000000000029
 20
-24.0
 30
15.0
 11
0.0000000000000011
 21
-9.099995340203591
 31
15.0
  0
LINE
  5
30F
330
2C4
100
AcDbEntity
  8
Predefinito
 62
     9
420
 12632256
100
AcDbLine
 10
-0.0000000000000011
 20
9.10000376053764
 30
15.0
 11
-0.0000000000000048
 21
39.00000000000001
 31
15.0
  0
LINE
  5
310
330
2C4
100
AcDbEntity
  8
Predefinito
 62
     9
420
 12632256
100
AcDbLine
 10
14.99999999999999
 20
60.0
 30
0.0
 11
-15.00000000000001
 21
60.0
 31
0.0
  0
LINE
  5
311
330
2C4
100
AcDbEntity
  8
Predefinito
 62
     9
420
 12632256
100
AcDbLine
 10
-0.0000000000000073
 20
60.0
 30
-15.0
 11
-0.0000000000000073
 21
60.0
 31
15.0
  0
CIRCLE
  5
312
330
2C4
100
AcDbEntity
  8
Predefinito
 62
     9
420
 12632256
100
AcDbCircle
 10
0.0
 20
0.0
 30
50.0
 40
15.0
210
-1.224667021809839E-16
220
1.0
230
0.0
  0
LINE
  5
313
330
2C4
100
AcDbEntity
  8
Predefinito
 62
     9
420
 12632256
100
AcDbLine
 10
-0.0000000000000049
 20
40.00000000000001
 30
-15.0
 11
-0.0000000000000073
 21
60.00000000000001
 31
-15.0
  0
LINE
  5
314
330
2C4
100
AcDbEntity
  8
Predefinito
 62
     9
420
 12632256
100
AcDbLine
 10
-15.0
 20
40.0
 30
0.0
 11
-15.00000000000001
 21
60.0
 31
0.0
  0
LINE
  5
315
330
2C4
100
AcDbEntity
  8
Predefinito
 62
     9
420
 12632256
100
AcDbLine
 10
-0.0000000000000049
 20
40.00000000000001
 30
15.0
 11
-0.0000000000000073
 21
60.00000000000001
 31
15.0
  0
LINE
  5
316
330
2C4
100
AcDbEntity
  8
Predefinito
 62
     9
420
 12632256
100
AcDbLine
 10
-15.00000000000001
 20
39.99999999999999
 30
0.0
 11
-14.00000000000001
 21
39.99999999999999
 31
0.0
  0
LINE
  5
317
330
2C4
100
AcDbEntity
  8
Predefinito
 62
     9
420
 12632256
100
AcDbLine
 10
14.0
 20
40.0
 30
0.0
 11
15.0
 21
40.0
 31
0.0
  0
LINE
  5
318
330
2C4
100
AcDbEntity
  8
Predefinito
 62
     9
420
 12632256
100
AcDbLine
 10
-0.0000000000000018
 20
40.0
 30
-15.0
 11
-0.0000000000000018
 21
40.0
 31
-14.0
  0
LINE
  5
319
330
2C4
100
AcDbEntity
  8
Predefinito
 62
     9
420
 12632256
100
AcDbLine
 10
-0.0000000000000018
 20
40.0
 30
14.0
 11
-0.0000000000000018
 21
40.0
 31
15.0
  0
CIRCLE
  5
31A
330
2C4
100
AcDbEntity
  8
Predefinito
 62
     9
420
 12632256
100
AcDbCircle
 10
0.0
 20
0.0
 30
39.5
 40
14.0
210
-1.224667021809839E-16
220
1.0
230
0.0
  0
LINE
  5
31B
330
2C4
100
AcDbEntity
  8
Predefinito
 62
     9
420
 12632256
100
AcDbLine
 10
-0.0000000000000048
 20
39.0
 30
-14.0
 11
-0.0000000000000049
 21
40.00000000000001
 31
-14.0
  0
LINE
  5
31C
330
2C4
100
AcDbEntity
  8
Predefinito
 62
     9
420
 12632256
100
AcDbLine
 10
-14.0
 20
39.0
 30
0.0
 11
-14.0
 21
40.00000000000001
 31
0.0
  0
LINE
  5
31D
330
2C4
100
AcDbEntity
  8
Predefinito
 62
     9
420
 12632256
100
AcDbLine
 10
-0.0000000000000048
 20
39.0
 30
14.0
 11
-0.0000000000000049
 21
40.00000000000001
 31
14.0
  0
LINE
  5
31E
330
2C4
100
AcDbEntity
  8
Predefinito
 62
     9
420
 12632256
100
AcDbLine
 10
14.99999999999999
 20
39.0
 30
0.0
 11
13.99999999999999
 21
39.0
 31
0.0
  0
LINE
  5
31F
330
2C4
100
AcDbEntity
  8
Predefinito
 62
     9
420
 12632256
100
AcDbLine
 10
-14.00000000000001
 20
39.0
 30
0.0
 11
-15.00000000000001
 21
38.99999999999999
 31
0.0
  0
LINE
  5
320
330
2C4
100
AcDbEntity
  8
Predefinito
 62
     9
420
 12632256
100
AcDbLine
 10
-0.0000000000000036
 20
39.0
 30
-15.0
 11
-0.0000000000000036
 21
39.0
 31
-14.0
  0
LINE
  5
321
330
2C4
100
AcDbEntity
  8
Predefinito
 62
     9
420
 12632256
100
AcDbLine
 10
-0.0000000000000036
 20
39.0
 30
14.0
 11
-0.0000000000000036
 21
39.0
 31
15.0
  0
CIRCLE
  5
322
330
2C4
100
AcDbEntity
  8
Predefinito
 62
     9
420
 12632256
100
AcDbCircle
 10
0.0
 20
0.0
 30
0.0
 40
9.1
  0
LINE
  5
323
330
2C4
100
AcDbEntity
  8
Predefinito
 62
     9
420
 12632256
100
AcDbLine
 10
0.0
 20
9.1
 30
14.99999668154756
 11
0.0
 21
9.1
 31
-14.99998700940502
  0
LINE
  5
324
330
2C4
100
AcDbEntity
  8
Predefinito
 62
     9
420
 12632256
100
AcDbLine
 10
9.1
 20
0.0
 30
11.92433915925088
 11
9.1
 21
0.0
 31
-11.92433915925088
  0
LINE
  5
325
330
2C4
100
AcDbEntity
  8
Predefinito
 62
     9
420
 12632256
100
AcDbLine
 10
0.0
 20
-9.1
 30
14.99998700940243
 11
0.0
 21
-9.1
 31
-14.99999668154973
  0
ENDBLK
  5
327
330
2C4
100
AcDbEntity
  8
0
100
AcDbBlockEnd
  0
ENDSEC
  0
SECTION
  2
ENTITIES
  0
INSERT
  5
32B
330
1F
100
AcDbEntity
  8
Predefinito
100
AcDbBlockReference
  2
3600A414-00
 10
0.0
 20
0.0
 30
0.0
  0
ENDSEC
  0
SECTION
  2
OBJECTS
  0
DICTIONARY
  5
C
330
0
100
AcDbDictionary
281
     1
  3
ACAD_DETAILVIEWSTYLE
350
367
  3
ACAD_GROUP
350
D
  3
ACAD_LAYOUT
350
1A
  3
ACAD_MATERIAL
350
43
  3
ACAD_MLEADERSTYLE
350
366
  3
ACAD_MLINESTYLE
350
17
  3
ACAD_PLOTSETTINGS
350
19
  3
ACAD_PLOTSTYLENAME
350
E
  3
ACAD_SCALELIST
350
47
  3
ACAD_SECTIONVIEWSTYLE
350
368
  3
ACAD_TABLESTYLE
350
365
  3
ACAD_VISUALSTYLE
350
2A
  3
AcDbVariableDictionary
350
32C
  0
DICTIONARY
  5
367
102
{ACAD_REACTORS
330
C
102
}
330
C
100
AcDbDictionary
281
     1
  0
DICTIONARY
  5
D
102
{ACAD_REACTORS
330
C
102
}
330
C
100
AcDbDictionary
281
     1
  0
DICTIONARY
  5
1A
102
{ACAD_REACTORS
330
C
102
}
330
C
100
AcDbDictionary
281
     1
  3
Layout1
350
1E
  3
Layout2
350
26
  3
Model
350
22
  0
DICTIONARY
  5
43
102
{ACAD_REACTORS
330
C
102
}
330
C
100
AcDbDictionary
281
     1
  3
ByBlock
350
45
  3
ByLayer
350
44
  3
Global
350
46
  0
DICTIONARY
  5
366
102
{ACAD_REACTORS
330
C
102
}
330
C
100
AcDbDictionary
281
     1
  0
DICTIONARY
  5
17
102
{ACAD_REACTORS
330
C
102
}
330
C
100
AcDbDictionary
281
     1
  3
Standard
350
18
  0
DICTIONARY
  5
19
102
{ACAD_REACTORS
330
C
102
}
330
C
100
AcDbDictionary
281
     1
  0
ACDBDICTIONARYWDFLT
  5
E
102
{ACAD_REACTORS
330
C
102
}
330
C
100
AcDbDictionary
281
     1
  3
Normal
350
F
100
AcDbDictionaryWithDefault
340
F
  0
DICTIONARY
  5
47
102
{ACAD_REACTORS
330
C
102
}
330
C
100
AcDbDictionary
281
     1
  3
A0
350
48
  3
A1
350
49
  3
A2
350
4A
  3
A3
350
4B
  3
A4
350
4C
  3
A5
350
4D
  3
A6
350
4E
  3
A7
350
4F
  3
A8
350
50
  3
A9
350
51
  3
B0
350
52
  3
B1
350
53
  3
B2
350
54
  3
B3
350
55
  3
B4
350
56
  3
B5
350
57
  3
B6
350
58
  3
B7
350
59
  3
B8
350
5A
  3
B9
350
5B
  3
C0
350
5C
  3
C1
350
5D
  3
C2
350
5E
  3
C3
350
5F
  3
C4
350
60
  3
C5
350
61
  3
C6
350
62
  3
C7
350
63
  3
C8
350
64
  3
C9
350
65
  3
D0
350
66
  3
D1
350
67
  3
D2
350
68
  0
DICTIONARY
  5
368
102
{ACAD_REACTORS
330
C
102
}
330
C
100
AcDbDictionary
281
     1
  0
DICTIONARY
  5
365
102
{ACAD_REACTORS
330
C
102
}
330
C
100
AcDbDictionary
281
     1
  0
DICTIONARY
  5
2A
102
{ACAD_REACTORS
330
C
102
}
330
C
100
AcDbDictionary
281
     1
  3
2dWireframe
350
2F
  3
Basic
350
32
  3
Brighten
350
36
  3
ColorChange
350
3A
  3
Conceptual
350
34
  3
Dim
350
35
  3
EdgeColorOff
350
3D
  3
Facepattern
350
39
  3
Flat
350
2B
  3
FlatWithEdges
350
2C
  3
Gouraud
350
2D
  3
GouraudWithEdges
350
2E
  3
Hidden
350
31
  3
JitterOff
350
3B
  3
Linepattern
350
38
  3
OverhangOff
350
3C
  3
Realistic
350
33
  3
Shaded
350
42
  3
Shaded with edges
350
41
  3
Shades of Gray
350
3E
  3
Sketchy
350
3F
  3
Thicken
350
37
  3
Wireframe
350
30
  3
X-Ray
350
40
  0
DICTIONARY
  5
32C
102
{ACAD_REACTORS
330
C
102
}
330
C
100
AcDbDictionary
281
     1
  3
CANNOSCALE
350
32D
  3
MSLTSCALE
350
32E
  0
LAYOUT
  5
1E
102
{ACAD_REACTORS
330
1A
102
}
330
1A
100
AcDbPlotSettings
  1

  2
none_device
  4

  6

 40
0.0
 41
0.0
 42
0.0
 43
0.0
 44
0.0
 45
0.0
 46
0.0
 47
0.0
 48
0.0
 49
0.0
140
0.0
141
0.0
142
1.0
143
1.0
 70
   688
 72
     0
 73
     0
 74
     5
  7

 75
    16
 76
     0
 77
     2
 78
   300
147
1.0
148
0.0
149
0.0
100
AcDbLayout
  1
Layout1
 70
     1
 71
     1
 10
0.0
 20
0.0
 11
12.0
 21
9.0
 12
0.0
 22
0.0
 32
0.0
 14
1.000000000000000E+20
 24
1.000000000000000E+20
 34
1.000000000000000E+20
 15
-1.000000000000000E+20
 25
-1.000000000000000E+20
 35
-1.000000000000000E+20
146
0.0
 13
0.0
 23
0.0
 33
0.0
 16
1.0
 26
0.0
 36
0.0
 17
0.0
 27
1.0
 37
0.0
 76
     0
330
1B
  0
LAYOUT
  5
26
102
{ACAD_REACTORS
330
1A
102
}
330
1A
100
AcDbPlotSettings
  1

  2
none_device
  4

  6

 40
0.0
 41
0.0
 42
0.0
 43
0.0
 44
0.0
 45
0.0
 46
0.0
 47
0.0
 48
0.0
 49
0.0
140
0.0
141
0.0
142
1.0
143
1.0
 70
   688
 72
     0
 73
     0
 74
     5
  7

 75
    16
 76
     0
 77
     2
 78
   300
147
1.0
148
0.0
149
0.0
100
AcDbLayout
  1
Layout2
 70
     1
 71
     2
 10
0.0
 20
0.0
 11
0.0
 21
0.0
 12
0.0
 22
0.0
 32
0.0
 14
0.0
 24
0.0
 34
0.0
 15
0.0
 25
0.0
 35
0.0
146
0.0
 13
0.0
 23
0.0
 33
0.0
 16
1.0
 26
0.0
 36
0.0
 17
0.0
 27
1.0
 37
0.0
 76
     0
330
23
  0
LAYOUT
  5
22
102
{ACAD_REACTORS
330
1A
102
}
330
1A
100
AcDbPlotSettings
  1

  2
none_device
  4
Letter_(8.50_x_11.00_Inches)
  6

 40
6.35
 41
6.35
 42
6.35000508
 43
6.35000508
 44
215.9
 45
279.4
 46
0.0
 47
0.0
 48
0.0
 49
0.0
140
0.0
141
0.0
142
1.0
143
1.0
 70
  1712
 72
     0
 73
     0
 74
     0
  7

 75
     0
 76
     0
 77
     2
 78
   300
147
1.0
148
0.0
149
0.0
100
AcDbLayout
  1
Model
 70
     1
 71
     0
 10
0.0
 20
0.0
 11
12.0
 21
9.0
 12
0.0
 22
0.0
 32
0.0
 14
-102.4999973121443
 24
-60.00000000000001
 34
-415.0
 15
15.00000012905711
 25
60.00000000000001
 35
415.0
146
0.0
 13
0.0
 23
0.0
 33
0.0
 16
1.0
 26
0.0
 36
0.0
 17
0.0
 27
1.0
 37
0.0
 76
     0
330
1F
331
29
  0
MATERIAL
  5
45
102
{ACAD_REACTORS
330
43
102
}
102
{ACAD_XDICTIONARY
360
361
102
}
330
43
100
AcDbMaterial
  1
ByBlock
  0
MATERIAL
  5
44
102
{ACAD_REACTORS
330
43
102
}
102
{ACAD_XDICTIONARY
360
35F
102
}
330
43
100
AcDbMaterial
  1
ByLayer
  0
MATERIAL
  5
46
102
{ACAD_REACTORS
330
43
102
}
102
{ACAD_XDICTIONARY
360
363
102
}
330
43
100
AcDbMaterial
  1
Global
  0
MLINESTYLE
  5
18
102
{ACAD_REACTORS
330
17
102
}
330
17
100
AcDbMlineStyle
  2
Standard
 70
     0
  3

 62
   256
 51
90.0
 52
90.0
 71
     2
 49
0.5
 62
   256
  6
BYLAYER
 49
-0.5
 62
   256
  6
BYLAYER
  0
ACDBPLACEHOLDER
  5
F
102
{ACAD_REACTORS
330
E
102
}
330
E
  0
SCALE
  5
48
102
{ACAD_REACTORS
330
47
102
}
330
47
100
AcDbScale
 70
     0
300
1:1
140
1.0
141
1.0
290
     1
  0
SCALE
  5
49
102
{ACAD_REACTORS
330
47
102
}
330
47
100
AcDbScale
 70
     0
300
1:2
140
1.0
141
2.0
290
     0
  0
SCALE
  5
4A
102
{ACAD_REACTORS
330
47
102
}
330
47
100
AcDbScale
 70
     0
300
1:4
140
1.0
141
4.0
290
     0
  0
SCALE
  5
4B
102
{ACAD_REACTORS
330
47
102
}
330
47
100
AcDbScale
 70
     0
300
1:5
140
1.0
141
5.0
290
     0
  0
SCALE
  5
4C
102
{ACAD_REACTORS
330
47
102
}
330
47
100
AcDbScale
 70
     0
300
1:8
140
1.0
141
8.0
290
     0
  0
SCALE
  5
4D
102
{ACAD_REACTORS
330
47
102
}
330
47
100
AcDbScale
 70
     0
300
1:10
140
1.0
141
10.0
290
     0
  0
SCALE
  5
4E
102
{ACAD_REACTORS
330
47
102
}
330
47
100
AcDbScale
 70
     0
300
1:16
140
1.0
141
16.0
290
     0
  0
SCALE
  5
4F
102
{ACAD_REACTORS
330
47
102
}
330
47
100
AcDbScale
 70
     0
300
1:20
140
1.0
141
20.0
290
     0
  0
SCALE
  5
50
102
{ACAD_REACTORS
330
47
102
}
330
47
100
AcDbScale
 70
     0
300
1:30
140
1.0
141
30.0
290
     0
  0
SCALE
  5
51
102
{ACAD_REACTORS
330
47
102
}
330
47
100
AcDbScale
 70
     0
300
1:40
140
1.0
141
40.0
290
     0
  0
SCALE
  5
52
102
{ACAD_REACTORS
330
47
102
}
330
47
100
AcDbScale
 70
     0
300
1:50
140
1.0
141
50.0
290
     0
  0
SCALE
  5
53
102
{ACAD_REACTORS
330
47
102
}
330
47
100
AcDbScale
 70
     0
300
1:100
140
1.0
141
100.0
290
     0
  0
SCALE
  5
54
102
{ACAD_REACTORS
330
47
102
}
330
47
100
AcDbScale
 70
     0
300
2:1
140
2.0
141
1.0
290
     0
  0
SCALE
  5
55
102
{ACAD_REACTORS
330
47
102
}
330
47
100
AcDbScale
 70
     0
300
4:1
140
4.0
141
1.0
290
     0
  0
SCALE
  5
56
102
{ACAD_REACTORS
330
47
102
}
330
47
100
AcDbScale
 70
     0
300
8:1
140
8.0
141
1.0
290
     0
  0
SCALE
  5
57
102
{ACAD_REACTORS
330
47
102
}
330
47
100
AcDbScale
 70
     0
300
10:1
140
10.0
141
1.0
290
     0
  0
SCALE
  5
58
102
{ACAD_REACTORS
330
47
102
}
330
47
100
AcDbScale
 70
     0
300
100:1
140
100.0
141
1.0
290
     0
  0
SCALE
  5
59
102
{ACAD_REACTORS
330
47
102
}
330
47
100
AcDbScale
 70
     0
300
1/128" = 1'-0"
140
0.0078125
141
12.0
290
     0
  0
SCALE
  5
5A
102
{ACAD_REACTORS
330
47
102
}
330
47
100
AcDbScale
 70
     0
300
1/64" = 1'-0"
140
0.015625
141
12.0
290
     0
  0
SCALE
  5
5B
102
{ACAD_REACTORS
330
47
102
}
330
47
100
AcDbScale
 70
     0
300
1/32" = 1'-0"
140
0.03125
141
12.0
290
     0
  0
SCALE
  5
5C
102
{ACAD_REACTORS
330
47
102
}
330
47
100
AcDbScale
 70
     0
300
1/16" = 1'-0"
140
0.0625
141
12.0
290
     0
  0
SCALE
  5
5D
102
{ACAD_REACTORS
330
47
102
}
330
47
100
AcDbScale
 70
     0
300
3/32" = 1'-0"
140
0.09375
141
12.0
290
     0
  0
SCALE
  5
5E
102
{ACAD_REACTORS
330
47
102
}
330
47
100
AcDbScale
 70
     0
300
1/8" = 1'-0"
140
0.125
141
12.0
290
     0
  0
SCALE
  5
5F
102
{ACAD_REACTORS
330
47
102
}
330
47
100
AcDbScale
 70
     0
300
3/16" = 1'-0"
140
0.1875
141
12.0
290
     0
  0
SCALE
  5
60
102
{ACAD_REACTORS
330
47
102
}
330
47
100
AcDbScale
 70
     0
300
1/4" = 1'-0"
140
0.25
141
12.0
290
     0
  0
SCALE
  5
61
102
{ACAD_REACTORS
330
47
102
}
330
47
100
AcDbScale
 70
     0
300
3/8" = 1'-0"
140
0.375
141
12.0
290
     0
  0
SCALE
  5
62
102
{ACAD_REACTORS
330
47
102
}
330
47
100
AcDbScale
 70
     0
300
1/2" = 1'-0"
140
0.5
141
12.0
290
     0
  0
SCALE
  5
63
102
{ACAD_REACTORS
330
47
102
}
330
47
100
AcDbScale
 70
     0
300
3/4" = 1'-0"
140
0.75
141
12.0
290
     0
  0
SCALE
  5
64
102
{ACAD_REACTORS
330
47
102
}
330
47
100
AcDbScale
 70
     0
300
1" = 1'-0"
140
1.0
141
12.0
290
     0
  0
SCALE
  5
65
102
{ACAD_REACTORS
330
47
102
}
330
47
100
AcDbScale
 70
     0
300
1-1/2" = 1'-0"
140
1.5
141
12.0
290
     0
  0
SCALE
  5
66
102
{ACAD_REACTORS
330
47
102
}
330
47
100
AcDbScale
 70
     0
300
3" = 1'-0"
140
3.0
141
12.0
290
     0
  0
SCALE
  5
67
102
{ACAD_REACTORS
330
47
102
}
330
47
100
AcDbScale
 70
     0
300
6" = 1'-0"
140
6.0
141
12.0
290
     0
  0
SCALE
  5
68
102
{ACAD_REACTORS
330
47
102
}
330
47
100
AcDbScale
 70
     0
300
1'-0" = 1'-0"
140
12.0
141
12.0
290
     0
  0
VISUALSTYLE
  5
2F
102
{ACAD_REACTORS
330
2A
102
}
102
{ACAD_XDICTIONARY
360
337
102
}
330
2A
100
AcDbVisualStyle
  2
2dWireframe
 70
     4
 71
     0
 72
     2
 73
     0
 90
        0
 40
0.6
 41
30.0
 62
     5
 63
     7
421
 16777215
 74
     1
 91
        4
 64
     7
 65
   257
 75
     1
175
     1
 42
1.0
 92
        0
 66
   257
 43
1.0
 76
     1
 77
     6
 78
     2
 67
     7
 79
     5
170
     0
171
     0
290
     0
174
     0
 93
        1
 44
0.0
173
     0
291
     0
 45
0.0
1001
ACAD
1000
AcDbSavedByObjectVersion
1070
     0
  0
VISUALSTYLE
  5
32
102
{ACAD_REACTORS
330
2A
102
}
102
{ACAD_XDICTIONARY
360
33D
102
}
330
2A
100
AcDbVisualStyle
  2
Basic
 70
     7
 71
     1
 72
     0
 73
     1
 90
        0
 40
0.6
 41
30.0
 62
     5
 63
     7
421
 16777215
 74
     0
 91
        4
 64
     7
 65
   257
 75
     1
175
     1
 42
1.0
 92
        8
 66
     7
 43
1.0
 76
     1
 77
     6
 78
     2
 67
     7
 79
     5
170
     0
171
     0
290
     0
174
     0
 93
        1
 44
0.0
173
     0
291
     1
 45
0.0
1001
ACAD
1000
AcDbSavedByObjectVersion
1070
     0
  0
VISUALSTYLE
  5
36
102
{ACAD_REACTORS
330
2A
102
}
102
{ACAD_XDICTIONARY
360
345
102
}
330
2A
100
AcDbVisualStyle
  2
Brighten
 70
    12
 71
     2
 72
     2
 73
     0
 90
        0
 40
0.6
 41
30.0
 62
     5
 63
     7
421
 16777215
 74
     1
 91
        4
 64
     7
 65
   257
 75
     1
175
     1
 42
1.0
 92
        8
 66
     7
 43
1.0
 76
     1
 77
     6
 78
     2
 67
     7
 79
     5
170
     0
171
     0
290
     0
174
     0
 93
        1
 44
50.0
173
     0
291
     1
 45
0.0
1001
ACAD
1000
AcDbSavedByObjectVersion
1070
     0
  0
VISUALSTYLE
  5
3A
102
{ACAD_REACTORS
330
2A
102
}
102
{ACAD_XDICTIONARY
360
34D
102
}
330
2A
100
AcDbVisualStyle
  2
ColorChange
 70
    16
 71
     2
 72
     2
 73
     3
 90
        0
 40
0.6
 41
30.0
 62
     5
 63
     8
421
  8421504
 74
     1
 91
        4
 64
     7
 65
   257
 75
     1
175
     1
 42
1.0
 92
        8
 66
     8
424
  8421504
 43
1.0
 76
     1
 77
     6
 78
     2
 67
     7
 79
     5
170
     0
171
     0
290
     0
174
     0
 93
        1
 44
0.0
173
     0
291
     1
 45
0.0
1001
ACAD
1000
AcDbSavedByObjectVersion
1070
     0
  0
VISUALSTYLE
  5
34
102
{ACAD_REACTORS
330
2A
102
}
102
{ACAD_XDICTIONARY
360
341
102
}
330
2A
100
AcDbVisualStyle
  2
Conceptual
 70
     9
 71
     3
 72
     2
 73
     0
 90
        0
 40
0.6
 41
30.0
 62
     5
 63
     7
421
 16777215
 74
     2
 91
        2
 64
     7
 65
   257
 75
     1
175
     1
 42
179.0
 92
        8
 66
     7
 43
1.0
 76
     1
 77
     6
 78
     2
 67
     7
 79
     3
170
     0
171
     0
290
     0
174
     0
 93
        1
 44
0.0
173
     0
291
     0
 45
0.0
1001
ACAD
1000
AcDbSavedByObjectVersion
1070
     0
  0
VISUALSTYLE
  5
35
102
{ACAD_REACTORS
330
2A
102
}
102
{ACAD_XDICTIONARY
360
343
102
}
330
2A
100
AcDbVisualStyle
  2
Dim
 70
    11
 71
     2
 72
     2
 73
     0
 90
        0
 40
0.6
 41
30.0
 62
     5
 63
     7
421
 16777215
 74
     1
 91
        4
 64
     7
 65
   257
 75
     1
175
     1
 42
1.0
 92
        8
 66
     7
 43
1.0
 76
     1
 77
     6
 78
     2
 67
     7
 79
     5
170
     0
171
     0
290
     0
174
     0
 93
        1
 44
-50.0
173
     0
291
     1
 45
0.0
1001
ACAD
1000
AcDbSavedByObjectVersion
1070
     0
  0
VISUALSTYLE
  5
3D
102
{ACAD_REACTORS
330
2A
102
}
102
{ACAD_XDICTIONARY
360
353
102
}
330
2A
100
AcDbVisualStyle
  2
EdgeColorOff
 70
    22
 71
     2
 72
     2
 73
     0
 90
        0
 40
0.6
 41
30.0
 62
     5
 63
     7
421
 16777215
 74
     1
 91
        4
 64
     7
 65
   257
 75
     1
175
     1
 42
1.0
 92
        8
 66
     7
 43
1.0
 76
     1
 77
     6
 78
     2
 67
     7
 79
     5
170
     0
171
     0
290
     0
174
     0
 93
        1
 44
0.0
173
     0
291
     1
 45
0.0
1001
ACAD
1000
AcDbSavedByObjectVersion
1070
     0
  0
VISUALSTYLE
  5
39
102
{ACAD_REACTORS
330
2A
102
}
102
{ACAD_XDICTIONARY
360
34B
102
}
330
2A
100
AcDbVisualStyle
  2
Facepattern
 70
    15
 71
     2
 72
     2
 73
     0
 90
        0
 40
0.6
 41
30.0
 62
     5
 63
     7
421
 16777215
 74
     1
 91
        4
 64
     7
 65
   257
 75
     1
175
     1
 42
1.0
 92
        8
 66
     7
 43
1.0
 76
     1
 77
     6
 78
     2
 67
     7
 79
     5
170
     0
171
     0
290
     0
174
     0
 93
        1
 44
0.0
173
     0
291
     1
 45
0.0
1001
ACAD
1000
AcDbSavedByObjectVersion
1070
     0
  0
VISUALSTYLE
  5
2B
102
{ACAD_REACTORS
330
2A
102
}
102
{ACAD_XDICTIONARY
360
32F
102
}
330
2A
100
AcDbVisualStyle
  2
Flat
 70
     0
 71
     2
 72
     1
 73
     1
 90
        2
 40
0.6
 41
30.0
 62
     5
 63
     7
421
 16777215
 74
     0
 91
        0
 64
     7
 65
   257
 75
     1
175
     1
 42
1.0
 92
        8
 66
     7
 43
1.0
 76
     1
 77
     6
 78
     2
 67
     7
 79
     5
170
     0
171
     0
290
     0
174
     0
 93
       13
 44
0.0
173
     0
291
     1
 45
0.0
1001
ACAD
1000
AcDbSavedByObjectVersion
1070
     0
  0
VISUALSTYLE
  5
2C
102
{ACAD_REACTORS
330
2A
102
}
102
{ACAD_XDICTIONARY
360
331
102
}
330
2A
100
AcDbVisualStyle
  2
FlatWithEdges
 70
     1
 71
     2
 72
     1
 73
     1
 90
        2
 40
0.6
 41
30.0
 62
     5
 63
     7
421
 16777215
 74
     1
 91
        0
 64
     7
 65
   257
 75
     1
175
     1
 42
1.0
 92
        0
 66
   257
 43
1.0
 76
     1
 77
     6
 78
     2
 67
     7
 79
     5
170
     0
171
     0
290
     0
174
     0
 93
       13
 44
0.0
173
     0
291
     1
 45
0.0
1001
ACAD
1000
AcDbSavedByObjectVersion
1070
     0
  0
VISUALSTYLE
  5
2D
102
{ACAD_REACTORS
330
2A
102
}
102
{ACAD_XDICTIONARY
360
333
102
}
330
2A
100
AcDbVisualStyle
  2
Gouraud
 70
     2
 71
     2
 72
     2
 73
     1
 90
        2
 40
0.6
 41
30.0
 62
     5
 63
     7
421
 16777215
 74
     0
 91
        0
 64
     7
 65
   257
 75
     1
175
     1
 42
1.0
 92
        0
 66
     7
 43
1.0
 76
     1
 77
     6
 78
     2
 67
     7
 79
     5
170
     0
171
     0
290
     0
174
     0
 93
       13
 44
0.0
173
     0
291
     1
 45
0.0
1001
ACAD
1000
AcDbSavedByObjectVersion
1070
     0
  0
VISUALSTYLE
  5
2E
102
{ACAD_REACTORS
330
2A
102
}
102
{ACAD_XDICTIONARY
360
335
102
}
330
2A
100
AcDbVisualStyle
  2
GouraudWithEdges
 70
     3
 71
     2
 72
     2
 73
     1
 90
        2
 40
0.6
 41
30.0
 62
     5
 63
     7
421
 16777215
 74
     1
 91
        0
 64
     7
 65
   257
 75
     1
175
     1
 42
1.0
 92
        0
 66
   257
 43
1.0
 76
     1
 77
     6
 78
     2
 67
     7
 79
     5
170
     0
171
     0
290
     0
174
     0
 93
       13
 44
0.0
173
     0
291
     1
 45
0.0
1001
ACAD
1000
AcDbSavedByObjectVersion
1070
     0
  0
VISUALSTYLE
  5
31
102
{ACAD_REACTORS
330
2A
102
}
102
{ACAD_XDICTIONARY
360
33B
102
}
330
2A
100
AcDbVisualStyle
  2
Hidden
 70
     6
 71
     1
 72
     2
 73
     2
 90
        0
 40
0.6
 41
30.0
 62
     5
 63
     7
421
 16777215
 74
     2
 91
        2
 64
     7
 65
   257
 75
     2
175
     1
 42
40.0
 92
        0
 66
   257
 43
1.0
 76
     1
 77
     6
 78
     2
 67
     7
 79
     3
170
     0
171
     0
290
     0
174
     0
 93
        1
 44
0.0
173
     0
291
     0
 45
0.0
1001
ACAD
1000
AcDbSavedByObjectVersion
1070
     0
  0
VISUALSTYLE
  5
3B
102
{ACAD_REACTORS
330
2A
102
}
102
{ACAD_XDICTIONARY
360
34F
102
}
330
2A
100
AcDbVisualStyle
  2
JitterOff
 70
    20
 71
     2
 72
     2
 73
     0
 90
        0
 40
0.6
 41
30.0
 62
     5
 63
     7
421
 16777215
 74
     1
 91
        4
 64
     7
 65
   257
 75
     1
175
     1
 42
1.0
 92
       10
 66
     7
 43
1.0
 76
     1
 77
     6
 78
     2
 67
     7
 79
     5
170
     0
171
     0
290
     0
174
     0
 93
        1
 44
0.0
173
     0
291
     1
 45
0.0
1001
ACAD
1000
AcDbSavedByObjectVersion
1070
     0
  0
VISUALSTYLE
  5
38
102
{ACAD_REACTORS
330
2A
102
}
102
{ACAD_XDICTIONARY
360
349
102
}
330
2A
100
AcDbVisualStyle
  2
Linepattern
 70
    14
 71
     2
 72
     2
 73
     0
 90
        0
 40
0.6
 41
30.0
 62
     5
 63
     7
421
 16777215
 74
     1
 91
        4
 64
     7
 65
   257
 75
     7
175
     7
 42
1.0
 92
        8
 66
     7
 43
1.0
 76
     1
 77
     6
 78
     2
 67
     7
 79
     5
170
     0
171
     0
290
     0
174
     0
 93
        1
 44
0.0
173
     0
291
     1
 45
0.0
1001
ACAD
1000
AcDbSavedByObjectVersion
1070
     0
  0
VISUALSTYLE
  5
3C
102
{ACAD_REACTORS
330
2A
102
}
102
{ACAD_XDICTIONARY
360
351
102
}
330
2A
100
AcDbVisualStyle
  2
OverhangOff
 70
    21
 71
     2
 72
     2
 73
     0
 90
        0
 40
0.6
 41
30.0
 62
     5
 63
     7
421
 16777215
 74
     1
 91
        4
 64
     7
 65
   257
 75
     1
175
     1
 42
1.0
 92
        9
 66
     7
 43
1.0
 76
     1
 77
     6
 78
     2
 67
     7
 79
     5
170
     0
171
     0
290
     0
174
     0
 93
        1
 44
0.0
173
     0
291
     1
 45
0.0
1001
ACAD
1000
AcDbSavedByObjectVersion
1070
     0
  0
VISUALSTYLE
  5
33
102
{ACAD_REACTORS
330
2A
102
}
102
{ACAD_XDICTIONARY
360
33F
102
}
330
2A
100
AcDbVisualStyle
  2
Realistic
 70
     8
 71
     2
 72
     3
 73
     0
 90
        2
 40
0.6
 41
30.0
 62
     5
 63
     7
421
 16777215
 74
     0
 91
        0
 64
     7
 65
   257
 75
     1
175
     1
 42
1.0
 92
        8
 66
   257
 43
1.0
 76
     1
 77
     6
 78
     2
 67
     7
 79
     3
170
     0
171
     0
290
     0
174
     0
 93
       13
 44
0.0
173
     0
291
     0
 45
0.0
1001
ACAD
1000
AcDbSavedByObjectVersion
1070
     0
  0
VISUALSTYLE
  5
42
102
{ACAD_REACTORS
330
2A
102
}
102
{ACAD_XDICTIONARY
360
35D
102
}
330
2A
100
AcDbVisualStyle
  2
Shaded
 70
    27
 71
     2
 72
     2
 73
     1
 90
        2
 40
0.6
 41
30.0
 62
     5
 63
     7
421
 16777215
 74
     0
 91
        4
 64
     7
 65
   257
 75
     1
175
     1
 42
1.0
 92
        8
 66
   257
 43
1.0
 76
     1
 77
     6
 78
     2
 67
     8
425
  7895160
 79
     3
170
     0
171
     0
290
     0
174
     0
 93
        5
 44
0.0
173
     0
291
     0
 45
0.0
1001
ACAD
1000
AcDbSavedByObjectVersion
1070
     0
  0
VISUALSTYLE
  5
41
102
{ACAD_REACTORS
330
2A
102
}
102
{ACAD_XDICTIONARY
360
35B
102
}
330
2A
100
AcDbVisualStyle
  2
Shaded with edges
 70
    26
 71
     2
 72
     2
 73
     1
 90
        2
 40
0.6
 41
30.0
 62
     5
 63
     7
421
 16777215
 74
     1
 91
       10
 64
     7
 65
   257
 75
     2
175
     1
 42
1.0
 92
        8
 66
   257
 43
1.0
 76
     1
 77
     6
 78
     2
 67
     7
 79
     3
170
     0
171
     0
290
     0
174
     0
 93
        5
 44
0.0
173
     0
291
     0
 45
0.0
1001
ACAD
1000
AcDbSavedByObjectVersion
1070
     0
  0
VISUALSTYLE
  5
3E
102
{ACAD_REACTORS
330
2A
102
}
102
{ACAD_XDICTIONARY
360
355
102
}
330
2A
100
AcDbVisualStyle
  2
Shades of Gray
 70
    23
 71
     2
 72
     2
 73
     3
 90
        0
 40
0.6
 41
30.0
 62
     5
 63
     7
421
 16777215
 74
     2
 91
        2
 64
     7
 65
     7
 75
     1
175
     1
 42
40.0
 92
        8
 66
     7
 43
1.0
 76
     1
 77
     6
 78
     2
 67
     7
 79
     3
170
     0
171
     0
290
     0
174
     0
 93
        1
 44
0.0
173
     0
291
     0
 45
0.0
1001
ACAD
1000
AcDbSavedByObjectVersion
1070
     0
  0
VISUALSTYLE
  5
3F
102
{ACAD_REACTORS
330
2A
102
}
102
{ACAD_XDICTIONARY
360
357
102
}
330
2A
100
AcDbVisualStyle
  2
Sketchy
 70
    24
 71
     1
 72
     2
 73
     2
 90
        0
 40
0.6
 41
30.0
 62
     5
 63
     7
421
 16777215
 74
     2
 91
        2
 64
     7
 65
     7
 75
     1
175
     1
 42
40.0
 92
       11
 66
     7
 43
1.0
 76
     1
 77
     6
 78
     2
 67
     7
 79
     6
170
     0
171
     0
290
     0
174
     0
 93
        1
 44
0.0
173
     0
291
     0
 45
0.0
1001
ACAD
1000
AcDbSavedByObjectVersion
1070
     0
  0
VISUALSTYLE
  5
37
102
{ACAD_REACTORS
330
2A
102
}
102
{ACAD_XDICTIONARY
360
347
102
}
330
2A
100
AcDbVisualStyle
  2
Thicken
 70
    13
 71
     2
 72
     2
 73
     0
 90
        0
 40
0.6
 41
30.0
 62
     5
 63
     7
421
 16777215
 74
     1
 91
        4
 64
     7
 65
   257
 75
     1
175
     1
 42
1.0
 92
       12
 66
     7
 43
1.0
 76
     1
 77
     6
 78
     2
 67
     7
 79
     5
170
     0
171
     0
290
     0
174
     0
 93
        1
 44
0.0
173
     0
291
     1
 45
0.0
1001
ACAD
1000
AcDbSavedByObjectVersion
1070
     0
  0
VISUALSTYLE
  5
30
102
{ACAD_REACTORS
330
2A
102
}
102
{ACAD_XDICTIONARY
360
339
102
}
330
2A
100
AcDbVisualStyle
  2
Wireframe
 70
     5
 71
     0
 72
     2
 73
     0
 90
        0
 40
0.6
 41
30.0
 62
     5
 63
     7
421
 16777215
 74
     1
 91
        4
 64
     7
 65
   257
 75
     1
175
     1
 42
1.0
 92
        0
 66
   257
 43
1.0
 76
     1
 77
     6
 78
     2
 67
     7
 79
     3
170
     0
171
     0
290
     0
174
     0
 93
        1
 44
0.0
173
     0
291
     0
 45
0.0
1001
ACAD
1000
AcDbSavedByObjectVersion
1070
     0
  0
VISUALSTYLE
  5
40
102
{ACAD_REACTORS
330
2A
102
}
102
{ACAD_XDICTIONARY
360
359
102
}
330
2A
100
AcDbVisualStyle
  2
X-Ray
 70
    25
 71
     2
 72
     2
 73
     1
 90
        1
 40
0.5
 41
30.0
 62
     5
 63
     7
421
 16777215
 74
     1
 91
        0
 64
     7
 65
   257
 75
     1
175
     1
 42
1.0
 92
        8
 66
     7
 43
1.0
 76
     1
 77
     6
 78
     2
 67
     7
 79
     3
170
     0
171
     0
290
     0
174
     0
 93
       13
 44
0.0
173
     0
291
     0
 45
0.0
1001
ACAD
1000
AcDbSavedByObjectVersion
1070
     0
  0
DICTIONARYVAR
  5
32D
102
{ACAD_REACTORS
330
32C
102
}
330
32C
100
DictionaryVariables
280
     0
  1
1:1
  0
DICTIONARYVAR
  5
32E
102
{ACAD_REACTORS
330
32C
102
}
330
32C
100
DictionaryVariables
280
     0
  1
1
  0
DICTIONARY
  5
361
330
45
100
AcDbDictionary
280
     1
281
     1
  3
ACAD_XREC_ROUNDTRIP
360
362
  0
DICTIONARY
  5
35F
330
44
100
AcDbDictionary
280
     1
281
     1
  3
ACAD_XREC_ROUNDTRIP
360
360
  0
DICTIONARY
  5
363
330
46
100
AcDbDictionary
280
     1
281
     1
  3
ACAD_XREC_ROUNDTRIP
360
364
  0
DICTIONARY
  5
337
330
2F
100
AcDbDictionary
280
     1
281
     1
  3
ACAD_XREC_ROUNDTRIP
360
338
  0
DICTIONARY
  5
33D
330
32
100
AcDbDictionary
280
     1
281
     1
  3
ACAD_XREC_ROUNDTRIP
360
33E
  0
DICTIONARY
  5
345
330
36
100
AcDbDictionary
280
     1
281
     1
  3
ACAD_XREC_ROUNDTRIP
360
346
  0
DICTIONARY
  5
34D
330
3A
100
AcDbDictionary
280
     1
281
     1
  3
ACAD_XREC_ROUNDTRIP
360
34E
  0
DICTIONARY
  5
341
330
34
100
AcDbDictionary
280
     1
281
     1
  3
ACAD_XREC_ROUNDTRIP
360
342
  0
DICTIONARY
  5
343
330
35
100
AcDbDictionary
280
     1
281
     1
  3
ACAD_XREC_ROUNDTRIP
360
344
  0
DICTIONARY
  5
353
330
3D
100
AcDbDictionary
280
     1
281
     1
  3
ACAD_XREC_ROUNDTRIP
360
354
  0
DICTIONARY
  5
34B
330
39
100
AcDbDictionary
280
     1
281
     1
  3
ACAD_XREC_ROUNDTRIP
360
34C
  0
DICTIONARY
  5
32F
330
2B
100
AcDbDictionary
280
     1
281
     1
  3
ACAD_XREC_ROUNDTRIP
360
330
  0
DICTIONARY
  5
331
330
2C
100
AcDbDictionary
280
     1
281
     1
  3
ACAD_XREC_ROUNDTRIP
360
332
  0
DICTIONARY
  5
333
330
2D
100
AcDbDictionary
280
     1
281
     1
  3
ACAD_XREC_ROUNDTRIP
360
334
  0
DICTIONARY
  5
335
330
2E
100
AcDbDictionary
280
     1
281
     1
  3
ACAD_XREC_ROUNDTRIP
360
336
  0
DICTIONARY
  5
33B
330
31
100
AcDbDictionary
280
     1
281
     1
  3
ACAD_XREC_ROUNDTRIP
360
33C
  0
DICTIONARY
  5
34F
330
3B
100
AcDbDictionary
280
     1
281
     1
  3
ACAD_XREC_ROUNDTRIP
360
350
  0
DICTIONARY
  5
349
330
38
100
AcDbDictionary
280
     1
281
     1
  3
ACAD_XREC_ROUNDTRIP
360
34A
  0
DICTIONARY
  5
351
330
3C
100
AcDbDictionary
280
     1
281
     1
  3
ACAD_XREC_ROUNDTRIP
360
352
  0
DICTIONARY
  5
33F
330
33
100
AcDbDictionary
280
     1
281
     1
  3
ACAD_XREC_ROUNDTRIP
360
340
  0
DICTIONARY
  5
35D
330
42
100
AcDbDictionary
280
     1
281
     1
  3
ACAD_XREC_ROUNDTRIP
360
35E
  0
DICTIONARY
  5
35B
330
41
100
AcDbDictionary
280
     1
281
     1
  3
ACAD_XREC_ROUNDTRIP
360
35C
  0
DICTIONARY
  5
355
330
3E
100
AcDbDictionary
280
     1
281
     1
  3
ACAD_XREC_ROUNDTRIP
360
356
  0
DICTIONARY
  5
357
330
3F
100
AcDbDictionary
280
     1
281
     1
  3
ACAD_XREC_ROUNDTRIP
360
358
  0
DICTIONARY
  5
347
330
37
100
AcDbDictionary
280
     1
281
     1
  3
ACAD_XREC_ROUNDTRIP
360
348
  0
DICTIONARY
  5
339
330
30
100
AcDbDictionary
280
     1
281
     1
  3
ACAD_XREC_ROUNDTRIP
360
33A
  0
DICTIONARY
  5
359
330
40
100
AcDbDictionary
280
     1
281
     1
  3
ACAD_XREC_ROUNDTRIP
360
35A
  0
XRECORD
  5
362
102
{ACAD_REACTORS
330
361
102
}
330
361
100
AcDbXrecord
280
     1
102
MATERIAL
148
0.0
149
0.0
149
0.0
 93
        0
 94
      127
282
     0
 72
     1
 77
     1
171
     1
175
     1
179
     1
273
     0
  0
XRECORD
  5
360
102
{ACAD_REACTORS
330
35F
102
}
330
35F
100
AcDbXrecord
280
     1
102
MATERIAL
148
0.0
149
0.0
149
0.0
 93
        0
 94
      127
282
     0
 72
     1
 77
     1
171
     1
175
     1
179
     1
273
     0
  0
XRECORD
  5
364
102
{ACAD_REACTORS
330
363
102
}
330
363
100
AcDbXrecord
280
     1
102
MATERIAL
148
0.0
149
0.0
149
0.0
 93
        0
 94
      127
282
     0
 72
     1
 77
     1
171
     1
175
     1
179
     1
273
     0
  0
XRECORD
  5
338
102
{ACAD_REACTORS
330
337
102
}
330
337
100
AcDbXrecord
280
     1
102
RTVSPropertyOp0
 70
     1
102
RTVSPropertyOp1
 70
     1
102
RTVSPropertyOp2
 70
     1
102
RTVSPropertyOp3
 70
     1
102
RTVSPropertyOp4
 70
     1
102
RTVSPropertyOp5
 70
     1
102
RTVSPropertyOp6
 70
     1
102
RTVSPropertyOp7
 70
     1
102
RTVSPropertyOp8
 70
     1
102
RTVSPropertyOp9
 70
     1
102
RTVSPropertyOp10
 70
     1
102
RTVSPropertyOp11
 70
     1
102
RTVSPropertyOp12
 70
     1
102
RTVSPropertyOp13
 70
     1
102
RTVSPropertyOp14
 70
     1
102
RTVSPropertyOp15
 70
     1
102
RTVSPropertyOp16
 70
     1
102
RTVSPropertyOp17
 70
     1
102
RTVSPropertyOp18
 70
     1
102
RTVSPropertyOp19
 70
     1
102
RTVSPropertyOp20
 70
     1
102
RTVSPropertyOp21
 70
     1
102
RTVSPropertyOp22
 70
     1
102
RTVSPropertyOp23
 70
     1
102
RTVSPropertyOp24
 70
     1
102
RTVSPropertyOp25
 70
     1
102
RTVSPropertyOp26
 70
     1
102
RTVSPropertyOp27
 70
     1
102
RTVSPropertyOp28
 70
     1
102
RTVSPropertyOp29
 70
     1
102
RTVSPropertyOp30
 70
     1
102
RTVSPropertyOp31
 70
     1
102
RTVSPropertyOp32
 70
     1
102
RTVSPropertyOp33
 70
     1
102
RTVSPropertyOp34
 70
     1
102
RTVSPropertyOp35
 70
     1
102
RTVSPropertyOp36
 70
     1
102
RTVSPropertyOp37
 70
     1
102
RTVSPropertyOp38
 70
     1
102
RTVSPropertyOp39
 70
     1
102
RTVSPropertyOp40
 70
     1
102
RTVSPropertyOp41
 70
     1
102
RTVSPropertyOp42
 70
     1
102
RTVSPropertyOp43
 70
     1
102
RTVSPropertyOp44
 70
     1
102
RTVSPropertyOp45
 70
     1
102
RTVSPropertyOp46
 70
     1
102
RTVSPropertyOp47
 70
     1
102
RTVSPropertyOp48
 70
     1
102
RTVSPropertyOp49
 70
     1
102
RTVSPropertyOp50
 70
     1
102
RTVSPropertyOp51
 70
     0
102
RTVSPropertyOp52
 70
     0
102
RTVSPropertyOp53
 70
     1
102
RTVSPropertyOp54
 70
     1
102
RTVSPropertyOp55
 70
     1
102
RTVSPropertyOp56
 70
     1
102
RTVSPropertyOp57
 70
     1
102
RTVSPost2010Prop28
280
     1
102
RTVSPost2010PropOp28
 70
     1
102
RTVSPost2010Prop29
280
     1
102
RTVSPost2010PropOp29
 70
     1
102
RTVSPost2010Prop30
280
     0
102
RTVSPost2010PropOp30
 70
     1
102
RTVSPost2010Prop31
280
     0
102
RTVSPost2010PropOp31
 70
     1
102
RTVSPost2010Prop32
280
     0
102
RTVSPost2010PropOp32
 70
     1
102
RTVSPost2010Prop33
280
     0
102
RTVSPost2010PropOp33
 70
     1
102
RTVSPost2010Prop34
280
     0
102
RTVSPost2010PropOp34
 70
     1
102
RTVSPost2010Prop35
280
     0
102
RTVSPost2010PropOp35
 70
     1
102
RTVSPost2010Prop36
280
     0
102
RTVSPost2010PropOp36
 70
     1
102
RTVSPost2010Prop37
 90
       50
102
RTVSPost2010PropOp37
 70
     1
102
RTVSPost2010Prop38
140
0.0
102
RTVSPost2010PropOp38
 70
     1
102
RTVSPost2010Prop39
140
1.0
102
RTVSPost2010PropOp39
 70
     1
102
RTVSPost2010Prop40
 90
        0
102
RTVSPost2010PropOp40
 70
     1
102
RTVSPost2010Prop41ColorIndex
 90
       18
102
RTVSPost2010Prop41ColorRGB
 90
        0
102
RTVSPost2010PropOp41
 70
     1
102
RTVSPost2010Prop42
 90
       50
102
RTVSPost2010PropOp42
 70
     1
102
RTVSPost2010Prop43
 90
        3
102
RTVSPost2010PropOp43
 70
     1
102
RTVSPost2010Prop44ColorIndex
 90
        5
102
RTVSPost2010Prop44ColorRGB
 90
      255
102
RTVSPost2010PropOp44
 70
     1
102
RTVSPost2010Prop45
280
     0
102
RTVSPost2010PropOp45
 70
     1
102
RTVSPost2010Prop46
 90
       50
102
RTVSPost2010PropOp46
 70
     1
102
RTVSPost2010Prop47
 90
       50
102
RTVSPost2010PropOp47
 70
     1
102
RTVSPost2010Prop48
 90
       50
102
RTVSPost2010PropOp48
 70
     1
102
RTVSPost2010Prop49
280
     0
102
RTVSPost2010PropOp49
 70
     1
102
RTVSPost2010Prop50
 90
       50
102
RTVSPost2010PropOp50
 70
     1
102
RTVSPost2010Prop51ColorIndex
 90
      256
102
RTVSPost2010Prop51ColorRGB
 90
-16777216
102
RTVSPost2010PropOp51
 70
     0
102
RTVSPost2010Prop52
140
1.0
102
RTVSPost2010PropOp52
 70
     0
102
RTVSPost2010Prop53
 90
        2
102
RTVSPost2010PropOp53
 70
     1
102
RTVSPost2010Prop54
  1
strokes_ogs.tif
102
RTVSPost2010PropOp54
 70
     1
102
RTVSPost2010Prop55
280
     0
102
RTVSPost2010PropOp55
 70
     1
102
RTVSPost2010Prop56
140
1.0
102
RTVSPost2010PropOp56
 70
     1
102
RTVSPost2010Prop57
140
1.0
102
RTVSPost2010PropOp57
 70
     1
  0
XRECORD
  5
33E
102
{ACAD_REACTORS
330
33D
102
}
330
33D
100
AcDbXrecord
280
     1
102
RTVSPropertyOp0
 70
     1
102
RTVSPropertyOp1
 70
     1
102
RTVSPropertyOp2
 70
     1
102
RTVSPropertyOp3
 70
     1
102
RTVSPropertyOp4
 70
     1
102
RTVSPropertyOp5
 70
     1
102
RTVSPropertyOp6
 70
     1
102
RTVSPropertyOp7
 70
     1
102
RTVSPropertyOp8
 70
     1
102
RTVSPropertyOp9
 70
     1
102
RTVSPropertyOp10
 70
     1
102
RTVSPropertyOp11
 70
     1
102
RTVSPropertyOp12
 70
     1
102
RTVSPropertyOp13
 70
     1
102
RTVSPropertyOp14
 70
     1
102
RTVSPropertyOp15
 70
     1
102
RTVSPropertyOp16
 70
     1
102
RTVSPropertyOp17
 70
     1
102
RTVSPropertyOp18
 70
     1
102
RTVSPropertyOp19
 70
     1
102
RTVSPropertyOp20
 70
     1
102
RTVSPropertyOp21
 70
     1
102
RTVSPropertyOp22
 70
     1
102
RTVSPropertyOp23
 70
     1
102
RTVSPropertyOp24
 70
     1
102
RTVSPropertyOp25
 70
     1
102
RTVSPropertyOp26
 70
     1
102
RTVSPropertyOp27
 70
     1
102
RTVSPropertyOp28
 70
     1
102
RTVSPropertyOp29
 70
     1
102
RTVSPropertyOp30
 70
     1
102
RTVSPropertyOp31
 70
     1
102
RTVSPropertyOp32
 70
     1
102
RTVSPropertyOp33
 70
     1
102
RTVSPropertyOp34
 70
     1
102
RTVSPropertyOp35
 70
     1
102
RTVSPropertyOp36
 70
     1
102
RTVSPropertyOp37
 70
     1
102
RTVSPropertyOp38
 70
     1
102
RTVSPropertyOp39
 70
     1
102
RTVSPropertyOp40
 70
     1
102
RTVSPropertyOp41
 70
     1
102
RTVSPropertyOp42
 70
     1
102
RTVSPropertyOp43
 70
     1
102
RTVSPropertyOp44
 70
     1
102
RTVSPropertyOp45
 70
     1
102
RTVSPropertyOp46
 70
     1
102
RTVSPropertyOp47
 70
     1
102
RTVSPropertyOp48
 70
     1
102
RTVSPropertyOp49
 70
     1
102
RTVSPropertyOp50
 70
     1
102
RTVSPropertyOp51
 70
     0
102
RTVSPropertyOp52
 70
     0
102
RTVSPropertyOp53
 70
     1
102
RTVSPropertyOp54
 70
     1
102
RTVSPropertyOp55
 70
     1
102
RTVSPropertyOp56
 70
     1
102
RTVSPropertyOp57
 70
     1
102
RTVSPost2010Prop28
280
     0
102
RTVSPost2010PropOp28
 70
     1
102
RTVSPost2010Prop29
280
     1
102
RTVSPost2010PropOp29
 70
     1
102
RTVSPost2010Prop30
280
     1
102
RTVSPost2010PropOp30
 70
     1
102
RTVSPost2010Prop31
280
     0
102
RTVSPost2010PropOp31
 70
     1
102
RTVSPost2010Prop32
280
     0
102
RTVSPost2010PropOp32
 70
     1
102
RTVSPost2010Prop33
280
     0
102
RTVSPost2010PropOp33
 70
     1
102
RTVSPost2010Prop34
280
     0
102
RTVSPost2010PropOp34
 70
     1
102
RTVSPost2010Prop35
280
     0
102
RTVSPost2010PropOp35
 70
     1
102
RTVSPost2010Prop36
280
     0
102
RTVSPost2010PropOp36
 70
     1
102
RTVSPost2010Prop37
 90
       50
102
RTVSPost2010PropOp37
 70
     1
102
RTVSPost2010Prop38
140
0.0
102
RTVSPost2010PropOp38
 70
     1
102
RTVSPost2010Prop39
140
1.0
102
RTVSPost2010PropOp39
 70
     1
102
RTVSPost2010Prop40
 90
        0
102
RTVSPost2010PropOp40
 70
     1
102
RTVSPost2010Prop41ColorIndex
 90
       18
102
RTVSPost2010Prop41ColorRGB
 90
        0
102
RTVSPost2010PropOp41
 70
     1
102
RTVSPost2010Prop42
 90
       50
102
RTVSPost2010PropOp42
 70
     1
102
RTVSPost2010Prop43
 90
        3
102
RTVSPost2010PropOp43
 70
     1
102
RTVSPost2010Prop44ColorIndex
 90
        5
102
RTVSPost2010Prop44ColorRGB
 90
      255
102
RTVSPost2010PropOp44
 70
     1
102
RTVSPost2010Prop45
280
     0
102
RTVSPost2010PropOp45
 70
     1
102
RTVSPost2010Prop46
 90
       50
102
RTVSPost2010PropOp46
 70
     1
102
RTVSPost2010Prop47
 90
       50
102
RTVSPost2010PropOp47
 70
     1
102
RTVSPost2010Prop48
 90
       50
102
RTVSPost2010PropOp48
 70
     1
102
RTVSPost2010Prop49
280
     0
102
RTVSPost2010PropOp49
 70
     1
102
RTVSPost2010Prop50
 90
       50
102
RTVSPost2010PropOp50
 70
     1
102
RTVSPost2010Prop51ColorIndex
 90
      256
102
RTVSPost2010Prop51ColorRGB
 90
-16777216
102
RTVSPost2010PropOp51
 70
     0
102
RTVSPost2010Prop52
140
1.0
102
RTVSPost2010PropOp52
 70
     0
102
RTVSPost2010Prop53
 90
        2
102
RTVSPost2010PropOp53
 70
     1
102
RTVSPost2010Prop54
  1
strokes_ogs.tif
102
RTVSPost2010PropOp54
 70
     1
102
RTVSPost2010Prop55
280
     0
102
RTVSPost2010PropOp55
 70
     1
102
RTVSPost2010Prop56
140
1.0
102
RTVSPost2010PropOp56
 70
     1
102
RTVSPost2010Prop57
140
1.0
102
RTVSPost2010PropOp57
 70
     1
  0
XRECORD
  5
346
102
{ACAD_REACTORS
330
345
102
}
330
345
100
AcDbXrecord
280
     1
102
RTVSPropertyOp0
 70
     1
102
RTVSPropertyOp1
 70
     1
102
RTVSPropertyOp2
 70
     1
102
RTVSPropertyOp3
 70
     1
102
RTVSPropertyOp4
 70
     1
102
RTVSPropertyOp5
 70
     1
102
RTVSPropertyOp6
 70
     1
102
RTVSPropertyOp7
 70
     1
102
RTVSPropertyOp8
 70
     1
102
RTVSPropertyOp9
 70
     1
102
RTVSPropertyOp10
 70
     1
102
RTVSPropertyOp11
 70
     1
102
RTVSPropertyOp12
 70
     1
102
RTVSPropertyOp13
 70
     1
102
RTVSPropertyOp14
 70
     1
102
RTVSPropertyOp15
 70
     1
102
RTVSPropertyOp16
 70
     1
102
RTVSPropertyOp17
 70
     1
102
RTVSPropertyOp18
 70
     1
102
RTVSPropertyOp19
 70
     1
102
RTVSPropertyOp20
 70
     1
102
RTVSPropertyOp21
 70
     1
102
RTVSPropertyOp22
 70
     1
102
RTVSPropertyOp23
 70
     1
102
RTVSPropertyOp24
 70
     1
102
RTVSPropertyOp25
 70
     1
102
RTVSPropertyOp26
 70
     1
102
RTVSPropertyOp27
 70
     1
102
RTVSPropertyOp28
 70
     1
102
RTVSPropertyOp29
 70
     1
102
RTVSPropertyOp30
 70
     1
102
RTVSPropertyOp31
 70
     1
102
RTVSPropertyOp32
 70
     1
102
RTVSPropertyOp33
 70
     1
102
RTVSPropertyOp34
 70
     1
102
RTVSPropertyOp35
 70
     1
102
RTVSPropertyOp36
 70
     1
102
RTVSPropertyOp37
 70
     1
102
RTVSPropertyOp38
 70
     1
102
RTVSPropertyOp39
 70
     1
102
RTVSPropertyOp40
 70
     1
102
RTVSPropertyOp41
 70
     1
102
RTVSPropertyOp42
 70
     1
102
RTVSPropertyOp43
 70
     1
102
RTVSPropertyOp44
 70
     1
102
RTVSPropertyOp45
 70
     1
102
RTVSPropertyOp46
 70
     1
102
RTVSPropertyOp47
 70
     1
102
RTVSPropertyOp48
 70
     1
102
RTVSPropertyOp49
 70
     1
102
RTVSPropertyOp50
 70
     1
102
RTVSPropertyOp51
 70
     0
102
RTVSPropertyOp52
 70
     0
102
RTVSPropertyOp53
 70
     1
102
RTVSPropertyOp54
 70
     1
102
RTVSPropertyOp55
 70
     1
102
RTVSPropertyOp56
 70
     1
102
RTVSPropertyOp57
 70
     1
102
RTVSPost2010Prop28
280
     0
102
RTVSPost2010PropOp28
 70
     1
102
RTVSPost2010Prop29
280
     1
102
RTVSPost2010PropOp29
 70
     1
102
RTVSPost2010Prop30
280
     1
102
RTVSPost2010PropOp30
 70
     1
102
RTVSPost2010Prop31
280
     0
102
RTVSPost2010PropOp31
 70
     1
102
RTVSPost2010Prop32
280
     0
102
RTVSPost2010PropOp32
 70
     1
102
RTVSPost2010Prop33
280
     0
102
RTVSPost2010PropOp33
 70
     1
102
RTVSPost2010Prop34
280
     0
102
RTVSPost2010PropOp34
 70
     1
102
RTVSPost2010Prop35
280
     0
102
RTVSPost2010PropOp35
 70
     1
102
RTVSPost2010Prop36
280
     0
102
RTVSPost2010PropOp36
 70
     1
102
RTVSPost2010Prop37
 90
       50
102
RTVSPost2010PropOp37
 70
     1
102
RTVSPost2010Prop38
140
0.0
102
RTVSPost2010PropOp38
 70
     1
102
RTVSPost2010Prop39
140
1.0
102
RTVSPost2010PropOp39
 70
     1
102
RTVSPost2010Prop40
 90
        0
102
RTVSPost2010PropOp40
 70
     1
102
RTVSPost2010Prop41ColorIndex
 90
       18
102
RTVSPost2010Prop41ColorRGB
 90
        0
102
RTVSPost2010PropOp41
 70
     1
102
RTVSPost2010Prop42
 90
       50
102
RTVSPost2010PropOp42
 70
     1
102
RTVSPost2010Prop43
 90
        3
102
RTVSPost2010PropOp43
 70
     1
102
RTVSPost2010Prop44ColorIndex
 90
        5
102
RTVSPost2010Prop44ColorRGB
 90
      255
102
RTVSPost2010PropOp44
 70
     1
102
RTVSPost2010Prop45
280
     0
102
RTVSPost2010PropOp45
 70
     1
102
RTVSPost2010Prop46
 90
       50
102
RTVSPost2010PropOp46
 70
     1
102
RTVSPost2010Prop47
 90
       50
102
RTVSPost2010PropOp47
 70
     1
102
RTVSPost2010Prop48
 90
       50
102
RTVSPost2010PropOp48
 70
     1
102
RTVSPost2010Prop49
280
     0
102
RTVSPost2010PropOp49
 70
     1
102
RTVSPost2010Prop50
 90
       50
102
RTVSPost2010PropOp50
 70
     1
102
RTVSPost2010Prop51ColorIndex
 90
      256
102
RTVSPost2010Prop51ColorRGB
 90
-16777216
102
RTVSPost2010PropOp51
 70
     0
102
RTVSPost2010Prop52
140
1.0
102
RTVSPost2010PropOp52
 70
     0
102
RTVSPost2010Prop53
 90
        2
102
RTVSPost2010PropOp53
 70
     1
102
RTVSPost2010Prop54
  1
strokes_ogs.tif
102
RTVSPost2010PropOp54
 70
     1
102
RTVSPost2010Prop55
280
     0
102
RTVSPost2010PropOp55
 70
     1
102
RTVSPost2010Prop56
140
1.0
102
RTVSPost2010PropOp56
 70
     1
102
RTVSPost2010Prop57
140
1.0
102
RTVSPost2010PropOp57
 70
     1
  0
XRECORD
  5
34E
102
{ACAD_REACTORS
330
34D
102
}
330
34D
100
AcDbXrecord
280
     1
102
RTVSPropertyOp0
 70
     1
102
RTVSPropertyOp1
 70
     1
102
RTVSPropertyOp2
 70
     1
102
RTVSPropertyOp3
 70
     1
102
RTVSPropertyOp4
 70
     1
102
RTVSPropertyOp5
 70
     1
102
RTVSPropertyOp6
 70
     1
102
RTVSPropertyOp7
 70
     1
102
RTVSPropertyOp8
 70
     1
102
RTVSPropertyOp9
 70
     1
102
RTVSPropertyOp10
 70
     1
102
RTVSPropertyOp11
 70
     1
102
RTVSPropertyOp12
 70
     1
102
RTVSPropertyOp13
 70
     1
102
RTVSPropertyOp14
 70
     1
102
RTVSPropertyOp15
 70
     1
102
RTVSPropertyOp16
 70
     1
102
RTVSPropertyOp17
 70
     1
102
RTVSPropertyOp18
 70
     1
102
RTVSPropertyOp19
 70
     1
102
RTVSPropertyOp20
 70
     1
102
RTVSPropertyOp21
 70
     1
102
RTVSPropertyOp22
 70
     1
102
RTVSPropertyOp23
 70
     1
102
RTVSPropertyOp24
 70
     1
102
RTVSPropertyOp25
 70
     1
102
RTVSPropertyOp26
 70
     1
102
RTVSPropertyOp27
 70
     1
102
RTVSPropertyOp28
 70
     1
102
RTVSPropertyOp29
 70
     1
102
RTVSPropertyOp30
 70
     1
102
RTVSPropertyOp31
 70
     1
102
RTVSPropertyOp32
 70
     1
102
RTVSPropertyOp33
 70
     1
102
RTVSPropertyOp34
 70
     1
102
RTVSPropertyOp35
 70
     1
102
RTVSPropertyOp36
 70
     1
102
RTVSPropertyOp37
 70
     1
102
RTVSPropertyOp38
 70
     1
102
RTVSPropertyOp39
 70
     1
102
RTVSPropertyOp40
 70
     1
102
RTVSPropertyOp41
 70
     1
102
RTVSPropertyOp42
 70
     1
102
RTVSPropertyOp43
 70
     1
102
RTVSPropertyOp44
 70
     1
102
RTVSPropertyOp45
 70
     1
102
RTVSPropertyOp46
 70
     1
102
RTVSPropertyOp47
 70
     1
102
RTVSPropertyOp48
 70
     1
102
RTVSPropertyOp49
 70
     1
102
RTVSPropertyOp50
 70
     1
102
RTVSPropertyOp51
 70
     0
102
RTVSPropertyOp52
 70
     0
102
RTVSPropertyOp53
 70
     1
102
RTVSPropertyOp54
 70
     1
102
RTVSPropertyOp55
 70
     1
102
RTVSPropertyOp56
 70
     1
102
RTVSPropertyOp57
 70
     1
102
RTVSPost2010Prop28
280
     0
102
RTVSPost2010PropOp28
 70
     1
102
RTVSPost2010Prop29
280
     1
102
RTVSPost2010PropOp29
 70
     1
102
RTVSPost2010Prop30
280
     1
102
RTVSPost2010PropOp30
 70
     1
102
RTVSPost2010Prop31
280
     0
102
RTVSPost2010PropOp31
 70
     1
102
RTVSPost2010Prop32
280
     0
102
RTVSPost2010PropOp32
 70
     1
102
RTVSPost2010Prop33
280
     0
102
RTVSPost2010PropOp33
 70
     1
102
RTVSPost2010Prop34
280
     0
102
RTVSPost2010PropOp34
 70
     1
102
RTVSPost2010Prop35
280
     0
102
RTVSPost2010PropOp35
 70
     1
102
RTVSPost2010Prop36
280
     0
102
RTVSPost2010PropOp36
 70
     1
102
RTVSPost2010Prop37
 90
       50
102
RTVSPost2010PropOp37
 70
     1
102
RTVSPost2010Prop38
140
0.0
102
RTVSPost2010PropOp38
 70
     1
102
RTVSPost2010Prop39
140
1.0
102
RTVSPost2010PropOp39
 70
     1
102
RTVSPost2010Prop40
 90
        0
102
RTVSPost2010PropOp40
 70
     1
102
RTVSPost2010Prop41ColorIndex
 90
       18
102
RTVSPost2010Prop41ColorRGB
 90
        0
102
RTVSPost2010PropOp41
 70
     1
102
RTVSPost2010Prop42
 90
       50
102
RTVSPost2010PropOp42
 70
     1
102
RTVSPost2010Prop43
 90
        3
102
RTVSPost2010PropOp43
 70
     1
102
RTVSPost2010Prop44ColorIndex
 90
        5
102
RTVSPost2010Prop44ColorRGB
 90
      255
102
RTVSPost2010PropOp44
 70
     1
102
RTVSPost2010Prop45
280
     0
102
RTVSPost2010PropOp45
 70
     1
102
RTVSPost2010Prop46
 90
       50
102
RTVSPost2010PropOp46
 70
     1
102
RTVSPost2010Prop47
 90
       50
102
RTVSPost2010PropOp47
 70
     1
102
RTVSPost2010Prop48
 90
       50
102
RTVSPost2010PropOp48
 70
     1
102
RTVSPost2010Prop49
280
     0
102
RTVSPost2010PropOp49
 70
     1
102
RTVSPost2010Prop50
 90
       50
102
RTVSPost2010PropOp50
 70
     1
102
RTVSPost2010Prop51ColorIndex
 90
      256
102
RTVSPost2010Prop51ColorRGB
 90
-16777216
102
RTVSPost2010PropOp51
 70
     0
102
RTVSPost2010Prop52
140
1.0
102
RTVSPost2010PropOp52
 70
     0
102
RTVSPost2010Prop53
 90
        2
102
RTVSPost2010PropOp53
 70
     1
102
RTVSPost2010Prop54
  1
strokes_ogs.tif
102
RTVSPost2010PropOp54
 70
     1
102
RTVSPost2010Prop55
280
     0
102
RTVSPost2010PropOp55
 70
     1
102
RTVSPost2010Prop56
140
1.0
102
RTVSPost2010PropOp56
 70
     1
102
RTVSPost2010Prop57
140
1.0
102
RTVSPost2010PropOp57
 70
     1
  0
XRECORD
  5
342
102
{ACAD_REACTORS
330
341
102
}
330
341
100
AcDbXrecord
280
     1
102
RTVSPropertyOp0
 70
     1
102
RTVSPropertyOp1
 70
     1
102
RTVSPropertyOp2
 70
     1
102
RTVSPropertyOp3
 70
     1
102
RTVSPropertyOp4
 70
     1
102
RTVSPropertyOp5
 70
     1
102
RTVSPropertyOp6
 70
     1
102
RTVSPropertyOp7
 70
     1
102
RTVSPropertyOp8
 70
     1
102
RTVSPropertyOp9
 70
     1
102
RTVSPropertyOp10
 70
     1
102
RTVSPropertyOp11
 70
     1
102
RTVSPropertyOp12
 70
     1
102
RTVSPropertyOp13
 70
     1
102
RTVSPropertyOp14
 70
     1
102
RTVSPropertyOp15
 70
     1
102
RTVSPropertyOp16
 70
     1
102
RTVSPropertyOp17
 70
     1
102
RTVSPropertyOp18
 70
     1
102
RTVSPropertyOp19
 70
     1
102
RTVSPropertyOp20
 70
     1
102
RTVSPropertyOp21
 70
     1
102
RTVSPropertyOp22
 70
     1
102
RTVSPropertyOp23
 70
     1
102
RTVSPropertyOp24
 70
     1
102
RTVSPropertyOp25
 70
     1
102
RTVSPropertyOp26
 70
     1
102
RTVSPropertyOp27
 70
     1
102
RTVSPropertyOp28
 70
     1
102
RTVSPropertyOp29
 70
     1
102
RTVSPropertyOp30
 70
     1
102
RTVSPropertyOp31
 70
     1
102
RTVSPropertyOp32
 70
     1
102
RTVSPropertyOp33
 70
     1
102
RTVSPropertyOp34
 70
     1
102
RTVSPropertyOp35
 70
     1
102
RTVSPropertyOp36
 70
     1
102
RTVSPropertyOp37
 70
     1
102
RTVSPropertyOp38
 70
     1
102
RTVSPropertyOp39
 70
     1
102
RTVSPropertyOp40
 70
     1
102
RTVSPropertyOp41
 70
     1
102
RTVSPropertyOp42
 70
     1
102
RTVSPropertyOp43
 70
     1
102
RTVSPropertyOp44
 70
     1
102
RTVSPropertyOp45
 70
     1
102
RTVSPropertyOp46
 70
     1
102
RTVSPropertyOp47
 70
     1
102
RTVSPropertyOp48
 70
     1
102
RTVSPropertyOp49
 70
     1
102
RTVSPropertyOp50
 70
     1
102
RTVSPropertyOp51
 70
     0
102
RTVSPropertyOp52
 70
     0
102
RTVSPropertyOp53
 70
     1
102
RTVSPropertyOp54
 70
     1
102
RTVSPropertyOp55
 70
     1
102
RTVSPropertyOp56
 70
     1
102
RTVSPropertyOp57
 70
     1
102
RTVSPost2010Prop28
280
     0
102
RTVSPost2010PropOp28
 70
     1
102
RTVSPost2010Prop29
280
     1
102
RTVSPost2010PropOp29
 70
     1
102
RTVSPost2010Prop30
280
     1
102
RTVSPost2010PropOp30
 70
     1
102
RTVSPost2010Prop31
280
     0
102
RTVSPost2010PropOp31
 70
     1
102
RTVSPost2010Prop32
280
     0
102
RTVSPost2010PropOp32
 70
     1
102
RTVSPost2010Prop33
280
     0
102
RTVSPost2010PropOp33
 70
     1
102
RTVSPost2010Prop34
280
     0
102
RTVSPost2010PropOp34
 70
     1
102
RTVSPost2010Prop35
280
     0
102
RTVSPost2010PropOp35
 70
     1
102
RTVSPost2010Prop36
280
     0
102
RTVSPost2010PropOp36
 70
     1
102
RTVSPost2010Prop37
 90
       50
102
RTVSPost2010PropOp37
 70
     1
102
RTVSPost2010Prop38
140
0.0
102
RTVSPost2010PropOp38
 70
     1
102
RTVSPost2010Prop39
140
1.0
102
RTVSPost2010PropOp39
 70
     1
102
RTVSPost2010Prop40
 90
        0
102
RTVSPost2010PropOp40
 70
     1
102
RTVSPost2010Prop41ColorIndex
 90
       18
102
RTVSPost2010Prop41ColorRGB
 90
        0
102
RTVSPost2010PropOp41
 70
     1
102
RTVSPost2010Prop42
 90
       50
102
RTVSPost2010PropOp42
 70
     1
102
RTVSPost2010Prop43
 90
        3
102
RTVSPost2010PropOp43
 70
     1
102
RTVSPost2010Prop44ColorIndex
 90
        5
102
RTVSPost2010Prop44ColorRGB
 90
      255
102
RTVSPost2010PropOp44
 70
     1
102
RTVSPost2010Prop45
280
     0
102
RTVSPost2010PropOp45
 70
     1
102
RTVSPost2010Prop46
 90
       50
102
RTVSPost2010PropOp46
 70
     1
102
RTVSPost2010Prop47
 90
       50
102
RTVSPost2010PropOp47
 70
     1
102
RTVSPost2010Prop48
 90
       50
102
RTVSPost2010PropOp48
 70
     1
102
RTVSPost2010Prop49
280
     0
102
RTVSPost2010PropOp49
 70
     1
102
RTVSPost2010Prop50
 90
       50
102
RTVSPost2010PropOp50
 70
     1
102
RTVSPost2010Prop51ColorIndex
 90
      256
102
RTVSPost2010Prop51ColorRGB
 90
-16777216
102
RTVSPost2010PropOp51
 70
     0
102
RTVSPost2010Prop52
140
1.0
102
RTVSPost2010PropOp52
 70
     0
102
RTVSPost2010Prop53
 90
        2
102
RTVSPost2010PropOp53
 70
     1
102
RTVSPost2010Prop54
  1
strokes_ogs.tif
102
RTVSPost2010PropOp54
 70
     1
102
RTVSPost2010Prop55
280
     0
102
RTVSPost2010PropOp55
 70
     1
102
RTVSPost2010Prop56
140
1.0
102
RTVSPost2010PropOp56
 70
     1
102
RTVSPost2010Prop57
140
1.0
102
RTVSPost2010PropOp57
 70
     1
  0
XRECORD
  5
344
102
{ACAD_REACTORS
330
343
102
}
330
343
100
AcDbXrecord
280
     1
102
RTVSPropertyOp0
 70
     1
102
RTVSPropertyOp1
 70
     1
102
RTVSPropertyOp2
 70
     1
102
RTVSPropertyOp3
 70
     1
102
RTVSPropertyOp4
 70
     1
102
RTVSPropertyOp5
 70
     1
102
RTVSPropertyOp6
 70
     1
102
RTVSPropertyOp7
 70
     1
102
RTVSPropertyOp8
 70
     1
102
RTVSPropertyOp9
 70
     1
102
RTVSPropertyOp10
 70
     1
102
RTVSPropertyOp11
 70
     1
102
RTVSPropertyOp12
 70
     1
102
RTVSPropertyOp13
 70
     1
102
RTVSPropertyOp14
 70
     1
102
RTVSPropertyOp15
 70
     1
102
RTVSPropertyOp16
 70
     1
102
RTVSPropertyOp17
 70
     1
102
RTVSPropertyOp18
 70
     1
102
RTVSPropertyOp19
 70
     1
102
RTVSPropertyOp20
 70
     1
102
RTVSPropertyOp21
 70
     1
102
RTVSPropertyOp22
 70
     1
102
RTVSPropertyOp23
 70
     1
102
RTVSPropertyOp24
 70
     1
102
RTVSPropertyOp25
 70
     1
102
RTVSPropertyOp26
 70
     1
102
RTVSPropertyOp27
 70
     1
102
RTVSPropertyOp28
 70
     1
102
RTVSPropertyOp29
 70
     1
102
RTVSPropertyOp30
 70
     1
102
RTVSPropertyOp31
 70
     1
102
RTVSPropertyOp32
 70
     1
102
RTVSPropertyOp33
 70
     1
102
RTVSPropertyOp34
 70
     1
102
RTVSPropertyOp35
 70
     1
102
RTVSPropertyOp36
 70
     1
102
RTVSPropertyOp37
 70
     1
102
RTVSPropertyOp38
 70
     1
102
RTVSPropertyOp39
 70
     1
102
RTVSPropertyOp40
 70
     1
102
RTVSPropertyOp41
 70
     1
102
RTVSPropertyOp42
 70
     1
102
RTVSPropertyOp43
 70
     1
102
RTVSPropertyOp44
 70
     1
102
RTVSPropertyOp45
 70
     1
102
RTVSPropertyOp46
 70
     1
102
RTVSPropertyOp47
 70
     1
102
RTVSPropertyOp48
 70
     1
102
RTVSPropertyOp49
 70
     1
102
RTVSPropertyOp50
 70
     1
102
RTVSPropertyOp51
 70
     0
102
RTVSPropertyOp52
 70
     0
102
RTVSPropertyOp53
 70
     1
102
RTVSPropertyOp54
 70
     1
102
RTVSPropertyOp55
 70
     1
102
RTVSPropertyOp56
 70
     1
102
RTVSPropertyOp57
 70
     1
102
RTVSPost2010Prop28
280
     0
102
RTVSPost2010PropOp28
 70
     1
102
RTVSPost2010Prop29
280
     1
102
RTVSPost2010PropOp29
 70
     1
102
RTVSPost2010Prop30
280
     1
102
RTVSPost2010PropOp30
 70
     1
102
RTVSPost2010Prop31
280
     0
102
RTVSPost2010PropOp31
 70
     1
102
RTVSPost2010Prop32
280
     0
102
RTVSPost2010PropOp32
 70
     1
102
RTVSPost2010Prop33
280
     0
102
RTVSPost2010PropOp33
 70
     1
102
RTVSPost2010Prop34
280
     0
102
RTVSPost2010PropOp34
 70
     1
102
RTVSPost2010Prop35
280
     0
102
RTVSPost2010PropOp35
 70
     1
102
RTVSPost2010Prop36
280
     0
102
RTVSPost2010PropOp36
 70
     1
102
RTVSPost2010Prop37
 90
       50
102
RTVSPost2010PropOp37
 70
     1
102
RTVSPost2010Prop38
140
0.0
102
RTVSPost2010PropOp38
 70
     1
102
RTVSPost2010Prop39
140
1.0
102
RTVSPost2010PropOp39
 70
     1
102
RTVSPost2010Prop40
 90
        0
102
RTVSPost2010PropOp40
 70
     1
102
RTVSPost2010Prop41ColorIndex
 90
       18
102
RTVSPost2010Prop41ColorRGB
 90
        0
102
RTVSPost2010PropOp41
 70
     1
102
RTVSPost2010Prop42
 90
       50
102
RTVSPost2010PropOp42
 70
     1
102
RTVSPost2010Prop43
 90
        3
102
RTVSPost2010PropOp43
 70
     1
102
RTVSPost2010Prop44ColorIndex
 90
        5
102
RTVSPost2010Prop44ColorRGB
 90
      255
102
RTVSPost2010PropOp44
 70
     1
102
RTVSPost2010Prop45
280
     0
102
RTVSPost2010PropOp45
 70
     1
102
RTVSPost2010Prop46
 90
       50
102
RTVSPost2010PropOp46
 70
     1
102
RTVSPost2010Prop47
 90
       50
102
RTVSPost2010PropOp47
 70
     1
102
RTVSPost2010Prop48
 90
       50
102
RTVSPost2010PropOp48
 70
     1
102
RTVSPost2010Prop49
280
     0
102
RTVSPost2010PropOp49
 70
     1
102
RTVSPost2010Prop50
 90
       50
102
RTVSPost2010PropOp50
 70
     1
102
RTVSPost2010Prop51ColorIndex
 90
      256
102
RTVSPost2010Prop51ColorRGB
 90
-16777216
102
RTVSPost2010PropOp51
 70
     0
102
RTVSPost2010Prop52
140
1.0
102
RTVSPost2010PropOp52
 70
     0
102
RTVSPost2010Prop53
 90
        2
102
RTVSPost2010PropOp53
 70
     1
102
RTVSPost2010Prop54
  1
strokes_ogs.tif
102
RTVSPost2010PropOp54
 70
     1
102
RTVSPost2010Prop55
280
     0
102
RTVSPost2010PropOp55
 70
     1
102
RTVSPost2010Prop56
140
1.0
102
RTVSPost2010PropOp56
 70
     1
102
RTVSPost2010Prop57
140
1.0
102
RTVSPost2010PropOp57
 70
     1
  0
XRECORD
  5
354
102
{ACAD_REACTORS
330
353
102
}
330
353
100
AcDbXrecord
280
     1
102
RTVSPropertyOp0
 70
     0
102
RTVSPropertyOp1
 70
     0
102
RTVSPropertyOp2
 70
     0
102
RTVSPropertyOp3
 70
     0
102
RTVSPropertyOp4
 70
     0
102
RTVSPropertyOp5
 70
     0
102
RTVSPropertyOp6
 70
     0
102
RTVSPropertyOp7
 70
     0
102
RTVSPropertyOp8
 70
     0
102
RTVSPropertyOp9
 70
     0
102
RTVSPropertyOp10
 70
     0
102
RTVSPropertyOp11
 70
     0
102
RTVSPropertyOp12
 70
     0
102
RTVSPropertyOp13
 70
     0
102
RTVSPropertyOp14
 70
     2
102
RTVSPropertyOp15
 70
     0
102
RTVSPropertyOp16
 70
     0
102
RTVSPropertyOp17
 70
     0
102
RTVSPropertyOp18
 70
     0
102
RTVSPropertyOp19
 70
     0
102
RTVSPropertyOp20
 70
     0
102
RTVSPropertyOp21
 70
     0
102
RTVSPropertyOp22
 70
     0
102
RTVSPropertyOp23
 70
     0
102
RTVSPropertyOp24
 70
     0
102
RTVSPropertyOp25
 70
     0
102
RTVSPropertyOp26
 70
     0
102
RTVSPropertyOp27
 70
     0
102
RTVSPropertyOp28
 70
     0
102
RTVSPropertyOp29
 70
     0
102
RTVSPropertyOp30
 70
     0
102
RTVSPropertyOp31
 70
     0
102
RTVSPropertyOp32
 70
     0
102
RTVSPropertyOp33
 70
     0
102
RTVSPropertyOp34
 70
     0
102
RTVSPropertyOp35
 70
     0
102
RTVSPropertyOp36
 70
     0
102
RTVSPropertyOp37
 70
     0
102
RTVSPropertyOp38
 70
     0
102
RTVSPropertyOp39
 70
     0
102
RTVSPropertyOp40
 70
     0
102
RTVSPropertyOp41
 70
     0
102
RTVSPropertyOp42
 70
     0
102
RTVSPropertyOp43
 70
     0
102
RTVSPropertyOp44
 70
     0
102
RTVSPropertyOp45
 70
     0
102
RTVSPropertyOp46
 70
     0
102
RTVSPropertyOp47
 70
     0
102
RTVSPropertyOp48
 70
     0
102
RTVSPropertyOp49
 70
     0
102
RTVSPropertyOp50
 70
     0
102
RTVSPropertyOp51
 70
     0
102
RTVSPropertyOp52
 70
     0
102
RTVSPropertyOp53
 70
     0
102
RTVSPropertyOp54
 70
     0
102
RTVSPropertyOp55
 70
     0
102
RTVSPropertyOp56
 70
     0
102
RTVSPropertyOp57
 70
     0
102
RTVSPost2010Prop28
280
     0
102
RTVSPost2010PropOp28
 70
     0
102
RTVSPost2010Prop29
280
     1
102
RTVSPost2010PropOp29
 70
     0
102
RTVSPost2010Prop30
280
     1
102
RTVSPost2010PropOp30
 70
     0
102
RTVSPost2010Prop31
280
     0
102
RTVSPost2010PropOp31
 70
     0
102
RTVSPost2010Prop32
280
     0
102
RTVSPost2010PropOp32
 70
     0
102
RTVSPost2010Prop33
280
     0
102
RTVSPost2010PropOp33
 70
     0
102
RTVSPost2010Prop34
280
     0
102
RTVSPost2010PropOp34
 70
     0
102
RTVSPost2010Prop35
280
     0
102
RTVSPost2010PropOp35
 70
     0
102
RTVSPost2010Prop36
280
     0
102
RTVSPost2010PropOp36
 70
     0
102
RTVSPost2010Prop37
 90
       50
102
RTVSPost2010PropOp37
 70
     0
102
RTVSPost2010Prop38
140
0.0
102
RTVSPost2010PropOp38
 70
     0
102
RTVSPost2010Prop39
140
1.0
102
RTVSPost2010PropOp39
 70
     0
102
RTVSPost2010Prop40
 90
        0
102
RTVSPost2010PropOp40
 70
     0
102
RTVSPost2010Prop41ColorIndex
 90
       18
102
RTVSPost2010Prop41ColorRGB
 90
        0
102
RTVSPost2010PropOp41
 70
     0
102
RTVSPost2010Prop42
 90
       50
102
RTVSPost2010PropOp42
 70
     0
102
RTVSPost2010Prop43
 90
        3
102
RTVSPost2010PropOp43
 70
     0
102
RTVSPost2010Prop44ColorIndex
 90
        5
102
RTVSPost2010Prop44ColorRGB
 90
      255
102
RTVSPost2010PropOp44
 70
     0
102
RTVSPost2010Prop45
280
     0
102
RTVSPost2010PropOp45
 70
     0
102
RTVSPost2010Prop46
 90
       50
102
RTVSPost2010PropOp46
 70
     0
102
RTVSPost2010Prop47
 90
       50
102
RTVSPost2010PropOp47
 70
     0
102
RTVSPost2010Prop48
 90
       50
102
RTVSPost2010PropOp48
 70
     0
102
RTVSPost2010Prop49
280
     0
102
RTVSPost2010PropOp49
 70
     0
102
RTVSPost2010Prop50
 90
       50
102
RTVSPost2010PropOp50
 70
     0
102
RTVSPost2010Prop51ColorIndex
 90
      256
102
RTVSPost2010Prop51ColorRGB
 90
-16777216
102
RTVSPost2010PropOp51
 70
     0
102
RTVSPost2010Prop52
140
1.0
102
RTVSPost2010PropOp52
 70
     0
102
RTVSPost2010Prop53
 90
        2
102
RTVSPost2010PropOp53
 70
     0
102
RTVSPost2010Prop54
  1
strokes_ogs.tif
102
RTVSPost2010PropOp54
 70
     0
102
RTVSPost2010Prop55
280
     0
102
RTVSPost2010PropOp55
 70
     0
102
RTVSPost2010Prop56
140
1.0
102
RTVSPost2010PropOp56
 70
     0
102
RTVSPost2010Prop57
140
1.0
102
RTVSPost2010PropOp57
 70
     0
  0
XRECORD
  5
34C
102
{ACAD_REACTORS
330
34B
102
}
330
34B
100
AcDbXrecord
280
     1
102
RTVSPropertyOp0
 70
     1
102
RTVSPropertyOp1
 70
     1
102
RTVSPropertyOp2
 70
     1
102
RTVSPropertyOp3
 70
     1
102
RTVSPropertyOp4
 70
     1
102
RTVSPropertyOp5
 70
     1
102
RTVSPropertyOp6
 70
     1
102
RTVSPropertyOp7
 70
     1
102
RTVSPropertyOp8
 70
     1
102
RTVSPropertyOp9
 70
     1
102
RTVSPropertyOp10
 70
     1
102
RTVSPropertyOp11
 70
     1
102
RTVSPropertyOp12
 70
     1
102
RTVSPropertyOp13
 70
     1
102
RTVSPropertyOp14
 70
     1
102
RTVSPropertyOp15
 70
     1
102
RTVSPropertyOp16
 70
     1
102
RTVSPropertyOp17
 70
     1
102
RTVSPropertyOp18
 70
     1
102
RTVSPropertyOp19
 70
     1
102
RTVSPropertyOp20
 70
     1
102
RTVSPropertyOp21
 70
     1
102
RTVSPropertyOp22
 70
     1
102
RTVSPropertyOp23
 70
     1
102
RTVSPropertyOp24
 70
     1
102
RTVSPropertyOp25
 70
     1
102
RTVSPropertyOp26
 70
     1
102
RTVSPropertyOp27
 70
     1
102
RTVSPropertyOp28
 70
     1
102
RTVSPropertyOp29
 70
     1
102
RTVSPropertyOp30
 70
     1
102
RTVSPropertyOp31
 70
     1
102
RTVSPropertyOp32
 70
     1
102
RTVSPropertyOp33
 70
     1
102
RTVSPropertyOp34
 70
     1
102
RTVSPropertyOp35
 70
     1
102
RTVSPropertyOp36
 70
     1
102
RTVSPropertyOp37
 70
     1
102
RTVSPropertyOp38
 70
     1
102
RTVSPropertyOp39
 70
     1
102
RTVSPropertyOp40
 70
     1
102
RTVSPropertyOp41
 70
     1
102
RTVSPropertyOp42
 70
     1
102
RTVSPropertyOp43
 70
     1
102
RTVSPropertyOp44
 70
     1
102
RTVSPropertyOp45
 70
     1
102
RTVSPropertyOp46
 70
     1
102
RTVSPropertyOp47
 70
     1
102
RTVSPropertyOp48
 70
     1
102
RTVSPropertyOp49
 70
     1
102
RTVSPropertyOp50
 70
     1
102
RTVSPropertyOp51
 70
     0
102
RTVSPropertyOp52
 70
     0
102
RTVSPropertyOp53
 70
     1
102
RTVSPropertyOp54
 70
     1
102
RTVSPropertyOp55
 70
     1
102
RTVSPropertyOp56
 70
     1
102
RTVSPropertyOp57
 70
     1
102
RTVSPost2010Prop28
280
     0
102
RTVSPost2010PropOp28
 70
     1
102
RTVSPost2010Prop29
280
     1
102
RTVSPost2010PropOp29
 70
     1
102
RTVSPost2010Prop30
280
     1
102
RTVSPost2010PropOp30
 70
     1
102
RTVSPost2010Prop31
280
     0
102
RTVSPost2010PropOp31
 70
     1
102
RTVSPost2010Prop32
280
     0
102
RTVSPost2010PropOp32
 70
     1
102
RTVSPost2010Prop33
280
     0
102
RTVSPost2010PropOp33
 70
     1
102
RTVSPost2010Prop34
280
     0
102
RTVSPost2010PropOp34
 70
     1
102
RTVSPost2010Prop35
280
     0
102
RTVSPost2010PropOp35
 70
     1
102
RTVSPost2010Prop36
280
     0
102
RTVSPost2010PropOp36
 70
     1
102
RTVSPost2010Prop37
 90
       50
102
RTVSPost2010PropOp37
 70
     1
102
RTVSPost2010Prop38
140
0.0
102
RTVSPost2010PropOp38
 70
     1
102
RTVSPost2010Prop39
140
1.0
102
RTVSPost2010PropOp39
 70
     1
102
RTVSPost2010Prop40
 90
        0
102
RTVSPost2010PropOp40
 70
     1
102
RTVSPost2010Prop41ColorIndex
 90
       18
102
RTVSPost2010Prop41ColorRGB
 90
        0
102
RTVSPost2010PropOp41
 70
     1
102
RTVSPost2010Prop42
 90
       50
102
RTVSPost2010PropOp42
 70
     1
102
RTVSPost2010Prop43
 90
        3
102
RTVSPost2010PropOp43
 70
     1
102
RTVSPost2010Prop44ColorIndex
 90
        5
102
RTVSPost2010Prop44ColorRGB
 90
      255
102
RTVSPost2010PropOp44
 70
     1
102
RTVSPost2010Prop45
280
     0
102
RTVSPost2010PropOp45
 70
     1
102
RTVSPost2010Prop46
 90
       50
102
RTVSPost2010PropOp46
 70
     1
102
RTVSPost2010Prop47
 90
       50
102
RTVSPost2010PropOp47
 70
     1
102
RTVSPost2010Prop48
 90
       50
102
RTVSPost2010PropOp48
 70
     1
102
RTVSPost2010Prop49
280
     0
102
RTVSPost2010PropOp49
 70
     1
102
RTVSPost2010Prop50
 90
       50
102
RTVSPost2010PropOp50
 70
     1
102
RTVSPost2010Prop51ColorIndex
 90
      256
102
RTVSPost2010Prop51ColorRGB
 90
-16777216
102
RTVSPost2010PropOp51
 70
     0
102
RTVSPost2010Prop52
140
1.0
102
RTVSPost2010PropOp52
 70
     0
102
RTVSPost2010Prop53
 90
        2
102
RTVSPost2010PropOp53
 70
     1
102
RTVSPost2010Prop54
  1
strokes_ogs.tif
102
RTVSPost2010PropOp54
 70
     1
102
RTVSPost2010Prop55
280
     0
102
RTVSPost2010PropOp55
 70
     1
102
RTVSPost2010Prop56
140
1.0
102
RTVSPost2010PropOp56
 70
     1
102
RTVSPost2010Prop57
140
1.0
102
RTVSPost2010PropOp57
 70
     1
  0
XRECORD
  5
330
102
{ACAD_REACTORS
330
32F
102
}
330
32F
100
AcDbXrecord
280
     1
102
RTVSPropertyOp0
 70
     1
102
RTVSPropertyOp1
 70
     1
102
RTVSPropertyOp2
 70
     1
102
RTVSPropertyOp3
 70
     1
102
RTVSPropertyOp4
 70
     1
102
RTVSPropertyOp5
 70
     1
102
RTVSPropertyOp6
 70
     1
102
RTVSPropertyOp7
 70
     1
102
RTVSPropertyOp8
 70
     1
102
RTVSPropertyOp9
 70
     1
102
RTVSPropertyOp10
 70
     1
102
RTVSPropertyOp11
 70
     1
102
RTVSPropertyOp12
 70
     1
102
RTVSPropertyOp13
 70
     1
102
RTVSPropertyOp14
 70
     1
102
RTVSPropertyOp15
 70
     1
102
RTVSPropertyOp16
 70
     1
102
RTVSPropertyOp17
 70
     1
102
RTVSPropertyOp18
 70
     1
102
RTVSPropertyOp19
 70
     1
102
RTVSPropertyOp20
 70
     1
102
RTVSPropertyOp21
 70
     1
102
RTVSPropertyOp22
 70
     1
102
RTVSPropertyOp23
 70
     1
102
RTVSPropertyOp24
 70
     1
102
RTVSPropertyOp25
 70
     1
102
RTVSPropertyOp26
 70
     1
102
RTVSPropertyOp27
 70
     1
102
RTVSPropertyOp28
 70
     1
102
RTVSPropertyOp29
 70
     1
102
RTVSPropertyOp30
 70
     1
102
RTVSPropertyOp31
 70
     1
102
RTVSPropertyOp32
 70
     1
102
RTVSPropertyOp33
 70
     1
102
RTVSPropertyOp34
 70
     1
102
RTVSPropertyOp35
 70
     1
102
RTVSPropertyOp36
 70
     1
102
RTVSPropertyOp37
 70
     1
102
RTVSPropertyOp38
 70
     1
102
RTVSPropertyOp39
 70
     1
102
RTVSPropertyOp40
 70
     1
102
RTVSPropertyOp41
 70
     1
102
RTVSPropertyOp42
 70
     1
102
RTVSPropertyOp43
 70
     1
102
RTVSPropertyOp44
 70
     1
102
RTVSPropertyOp45
 70
     1
102
RTVSPropertyOp46
 70
     1
102
RTVSPropertyOp47
 70
     1
102
RTVSPropertyOp48
 70
     1
102
RTVSPropertyOp49
 70
     1
102
RTVSPropertyOp50
 70
     1
102
RTVSPropertyOp51
 70
     0
102
RTVSPropertyOp52
 70
     0
102
RTVSPropertyOp53
 70
     1
102
RTVSPropertyOp54
 70
     1
102
RTVSPropertyOp55
 70
     1
102
RTVSPropertyOp56
 70
     1
102
RTVSPropertyOp57
 70
     1
102
RTVSPost2010Prop28
280
     0
102
RTVSPost2010PropOp28
 70
     1
102
RTVSPost2010Prop29
280
     1
102
RTVSPost2010PropOp29
 70
     1
102
RTVSPost2010Prop30
280
     1
102
RTVSPost2010PropOp30
 70
     1
102
RTVSPost2010Prop31
280
     0
102
RTVSPost2010PropOp31
 70
     1
102
RTVSPost2010Prop32
280
     0
102
RTVSPost2010PropOp32
 70
     1
102
RTVSPost2010Prop33
280
     0
102
RTVSPost2010PropOp33
 70
     1
102
RTVSPost2010Prop34
280
     0
102
RTVSPost2010PropOp34
 70
     1
102
RTVSPost2010Prop35
280
     0
102
RTVSPost2010PropOp35
 70
     1
102
RTVSPost2010Prop36
280
     0
102
RTVSPost2010PropOp36
 70
     1
102
RTVSPost2010Prop37
 90
       50
102
RTVSPost2010PropOp37
 70
     1
102
RTVSPost2010Prop38
140
0.0
102
RTVSPost2010PropOp38
 70
     1
102
RTVSPost2010Prop39
140
1.0
102
RTVSPost2010PropOp39
 70
     1
102
RTVSPost2010Prop40
 90
        0
102
RTVSPost2010PropOp40
 70
     1
102
RTVSPost2010Prop41ColorIndex
 90
       18
102
RTVSPost2010Prop41ColorRGB
 90
        0
102
RTVSPost2010PropOp41
 70
     1
102
RTVSPost2010Prop42
 90
       50
102
RTVSPost2010PropOp42
 70
     1
102
RTVSPost2010Prop43
 90
        3
102
RTVSPost2010PropOp43
 70
     1
102
RTVSPost2010Prop44ColorIndex
 90
        5
102
RTVSPost2010Prop44ColorRGB
 90
      255
102
RTVSPost2010PropOp44
 70
     1
102
RTVSPost2010Prop45
280
     0
102
RTVSPost2010PropOp45
 70
     1
102
RTVSPost2010Prop46
 90
       50
102
RTVSPost2010PropOp46
 70
     1
102
RTVSPost2010Prop47
 90
       50
102
RTVSPost2010PropOp47
 70
     1
102
RTVSPost2010Prop48
 90
       50
102
RTVSPost2010PropOp48
 70
     1
102
RTVSPost2010Prop49
280
     0
102
RTVSPost2010PropOp49
 70
     1
102
RTVSPost2010Prop50
 90
       50
102
RTVSPost2010PropOp50
 70
     1
102
RTVSPost2010Prop51ColorIndex
 90
      256
102
RTVSPost2010Prop51ColorRGB
 90
-16777216
102
RTVSPost2010PropOp51
 70
     0
102
RTVSPost2010Prop52
140
1.0
102
RTVSPost2010PropOp52
 70
     0
102
RTVSPost2010Prop53
 90
        2
102
RTVSPost2010PropOp53
 70
     1
102
RTVSPost2010Prop54
  1
strokes_ogs.tif
102
RTVSPost2010PropOp54
 70
     1
102
RTVSPost2010Prop55
280
     0
102
RTVSPost2010PropOp55
 70
     1
102
RTVSPost2010Prop56
140
1.0
102
RTVSPost2010PropOp56
 70
     1
102
RTVSPost2010Prop57
140
1.0
102
RTVSPost2010PropOp57
 70
     1
  0
XRECORD
  5
332
102
{ACAD_REACTORS
330
331
102
}
330
331
100
AcDbXrecord
280
     1
102
RTVSPropertyOp0
 70
     1
102
RTVSPropertyOp1
 70
     1
102
RTVSPropertyOp2
 70
     1
102
RTVSPropertyOp3
 70
     1
102
RTVSPropertyOp4
 70
     1
102
RTVSPropertyOp5
 70
     1
102
RTVSPropertyOp6
 70
     1
102
RTVSPropertyOp7
 70
     1
102
RTVSPropertyOp8
 70
     1
102
RTVSPropertyOp9
 70
     1
102
RTVSPropertyOp10
 70
     1
102
RTVSPropertyOp11
 70
     1
102
RTVSPropertyOp12
 70
     1
102
RTVSPropertyOp13
 70
     1
102
RTVSPropertyOp14
 70
     1
102
RTVSPropertyOp15
 70
     1
102
RTVSPropertyOp16
 70
     1
102
RTVSPropertyOp17
 70
     1
102
RTVSPropertyOp18
 70
     1
102
RTVSPropertyOp19
 70
     1
102
RTVSPropertyOp20
 70
     1
102
RTVSPropertyOp21
 70
     1
102
RTVSPropertyOp22
 70
     1
102
RTVSPropertyOp23
 70
     1
102
RTVSPropertyOp24
 70
     1
102
RTVSPropertyOp25
 70
     1
102
RTVSPropertyOp26
 70
     1
102
RTVSPropertyOp27
 70
     1
102
RTVSPropertyOp28
 70
     1
102
RTVSPropertyOp29
 70
     1
102
RTVSPropertyOp30
 70
     1
102
RTVSPropertyOp31
 70
     1
102
RTVSPropertyOp32
 70
     1
102
RTVSPropertyOp33
 70
     1
102
RTVSPropertyOp34
 70
     1
102
RTVSPropertyOp35
 70
     1
102
RTVSPropertyOp36
 70
     1
102
RTVSPropertyOp37
 70
     1
102
RTVSPropertyOp38
 70
     1
102
RTVSPropertyOp39
 70
     1
102
RTVSPropertyOp40
 70
     1
102
RTVSPropertyOp41
 70
     1
102
RTVSPropertyOp42
 70
     1
102
RTVSPropertyOp43
 70
     1
102
RTVSPropertyOp44
 70
     1
102
RTVSPropertyOp45
 70
     1
102
RTVSPropertyOp46
 70
     1
102
RTVSPropertyOp47
 70
     1
102
RTVSPropertyOp48
 70
     1
102
RTVSPropertyOp49
 70
     1
102
RTVSPropertyOp50
 70
     1
102
RTVSPropertyOp51
 70
     0
102
RTVSPropertyOp52
 70
     0
102
RTVSPropertyOp53
 70
     1
102
RTVSPropertyOp54
 70
     1
102
RTVSPropertyOp55
 70
     1
102
RTVSPropertyOp56
 70
     1
102
RTVSPropertyOp57
 70
     1
102
RTVSPost2010Prop28
280
     0
102
RTVSPost2010PropOp28
 70
     1
102
RTVSPost2010Prop29
280
     1
102
RTVSPost2010PropOp29
 70
     1
102
RTVSPost2010Prop30
280
     1
102
RTVSPost2010PropOp30
 70
     1
102
RTVSPost2010Prop31
280
     0
102
RTVSPost2010PropOp31
 70
     1
102
RTVSPost2010Prop32
280
     0
102
RTVSPost2010PropOp32
 70
     1
102
RTVSPost2010Prop33
280
     0
102
RTVSPost2010PropOp33
 70
     1
102
RTVSPost2010Prop34
280
     0
102
RTVSPost2010PropOp34
 70
     1
102
RTVSPost2010Prop35
280
     0
102
RTVSPost2010PropOp35
 70
     1
102
RTVSPost2010Prop36
280
     0
102
RTVSPost2010PropOp36
 70
     1
102
RTVSPost2010Prop37
 90
       50
102
RTVSPost2010PropOp37
 70
     1
102
RTVSPost2010Prop38
140
0.0
102
RTVSPost2010PropOp38
 70
     1
102
RTVSPost2010Prop39
140
1.0
102
RTVSPost2010PropOp39
 70
     1
102
RTVSPost2010Prop40
 90
        0
102
RTVSPost2010PropOp40
 70
     1
102
RTVSPost2010Prop41ColorIndex
 90
       18
102
RTVSPost2010Prop41ColorRGB
 90
        0
102
RTVSPost2010PropOp41
 70
     1
102
RTVSPost2010Prop42
 90
       50
102
RTVSPost2010PropOp42
 70
     1
102
RTVSPost2010Prop43
 90
        3
102
RTVSPost2010PropOp43
 70
     1
102
RTVSPost2010Prop44ColorIndex
 90
        5
102
RTVSPost2010Prop44ColorRGB
 90
      255
102
RTVSPost2010PropOp44
 70
     1
102
RTVSPost2010Prop45
280
     0
102
RTVSPost2010PropOp45
 70
     1
102
RTVSPost2010Prop46
 90
       50
102
RTVSPost2010PropOp46
 70
     1
102
RTVSPost2010Prop47
 90
       50
102
RTVSPost2010PropOp47
 70
     1
102
RTVSPost2010Prop48
 90
       50
102
RTVSPost2010PropOp48
 70
     1
102
RTVSPost2010Prop49
280
     0
102
RTVSPost2010PropOp49
 70
     1
102
RTVSPost2010Prop50
 90
       50
102
RTVSPost2010PropOp50
 70
     1
102
RTVSPost2010Prop51ColorIndex
 90
      256
102
RTVSPost2010Prop51ColorRGB
 90
-16777216
102
RTVSPost2010PropOp51
 70
     0
102
RTVSPost2010Prop52
140
1.0
102
RTVSPost2010PropOp52
 70
     0
102
RTVSPost2010Prop53
 90
        2
102
RTVSPost2010PropOp53
 70
     1
102
RTVSPost2010Prop54
  1
strokes_ogs.tif
102
RTVSPost2010PropOp54
 70
     1
102
RTVSPost2010Prop55
280
     0
102
RTVSPost2010PropOp55
 70
     1
102
RTVSPost2010Prop56
140
1.0
102
RTVSPost2010PropOp56
 70
     1
102
RTVSPost2010Prop57
140
1.0
102
RTVSPost2010PropOp57
 70
     1
  0
XRECORD
  5
334
102
{ACAD_REACTORS
330
333
102
}
330
333
100
AcDbXrecord
280
     1
102
RTVSPropertyOp0
 70
     1
102
RTVSPropertyOp1
 70
     1
102
RTVSPropertyOp2
 70
     1
102
RTVSPropertyOp3
 70
     1
102
RTVSPropertyOp4
 70
     1
102
RTVSPropertyOp5
 70
     1
102
RTVSPropertyOp6
 70
     1
102
RTVSPropertyOp7
 70
     1
102
RTVSPropertyOp8
 70
     1
102
RTVSPropertyOp9
 70
     1
102
RTVSPropertyOp10
 70
     1
102
RTVSPropertyOp11
 70
     1
102
RTVSPropertyOp12
 70
     1
102
RTVSPropertyOp13
 70
     1
102
RTVSPropertyOp14
 70
     1
102
RTVSPropertyOp15
 70
     1
102
RTVSPropertyOp16
 70
     1
102
RTVSPropertyOp17
 70
     1
102
RTVSPropertyOp18
 70
     1
102
RTVSPropertyOp19
 70
     1
102
RTVSPropertyOp20
 70
     1
102
RTVSPropertyOp21
 70
     1
102
RTVSPropertyOp22
 70
     1
102
RTVSPropertyOp23
 70
     1
102
RTVSPropertyOp24
 70
     1
102
RTVSPropertyOp25
 70
     1
102
RTVSPropertyOp26
 70
     1
102
RTVSPropertyOp27
 70
     1
102
RTVSPropertyOp28
 70
     1
102
RTVSPropertyOp29
 70
     1
102
RTVSPropertyOp30
 70
     1
102
RTVSPropertyOp31
 70
     1
102
RTVSPropertyOp32
 70
     1
102
RTVSPropertyOp33
 70
     1
102
RTVSPropertyOp34
 70
     1
102
RTVSPropertyOp35
 70
     1
102
RTVSPropertyOp36
 70
     1
102
RTVSPropertyOp37
 70
     1
102
RTVSPropertyOp38
 70
     1
102
RTVSPropertyOp39
 70
     1
102
RTVSPropertyOp40
 70
     1
102
RTVSPropertyOp41
 70
     1
102
RTVSPropertyOp42
 70
     1
102
RTVSPropertyOp43
 70
     1
102
RTVSPropertyOp44
 70
     1
102
RTVSPropertyOp45
 70
     1
102
RTVSPropertyOp46
 70
     1
102
RTVSPropertyOp47
 70
     1
102
RTVSPropertyOp48
 70
     1
102
RTVSPropertyOp49
 70
     1
102
RTVSPropertyOp50
 70
     1
102
RTVSPropertyOp51
 70
     0
102
RTVSPropertyOp52
 70
     0
102
RTVSPropertyOp53
 70
     1
102
RTVSPropertyOp54
 70
     1
102
RTVSPropertyOp55
 70
     1
102
RTVSPropertyOp56
 70
     1
102
RTVSPropertyOp57
 70
     1
102
RTVSPost2010Prop28
280
     0
102
RTVSPost2010PropOp28
 70
     1
102
RTVSPost2010Prop29
280
     1
102
RTVSPost2010PropOp29
 70
     1
102
RTVSPost2010Prop30
280
     1
102
RTVSPost2010PropOp30
 70
     1
102
RTVSPost2010Prop31
280
     0
102
RTVSPost2010PropOp31
 70
     1
102
RTVSPost2010Prop32
280
     0
102
RTVSPost2010PropOp32
 70
     1
102
RTVSPost2010Prop33
280
     0
102
RTVSPost2010PropOp33
 70
     1
102
RTVSPost2010Prop34
280
     0
102
RTVSPost2010PropOp34
 70
     1
102
RTVSPost2010Prop35
280
     0
102
RTVSPost2010PropOp35
 70
     1
102
RTVSPost2010Prop36
280
     0
102
RTVSPost2010PropOp36
 70
     1
102
RTVSPost2010Prop37
 90
       50
102
RTVSPost2010PropOp37
 70
     1
102
RTVSPost2010Prop38
140
0.0
102
RTVSPost2010PropOp38
 70
     1
102
RTVSPost2010Prop39
140
1.0
102
RTVSPost2010PropOp39
 70
     1
102
RTVSPost2010Prop40
 90
        0
102
RTVSPost2010PropOp40
 70
     1
102
RTVSPost2010Prop41ColorIndex
 90
       18
102
RTVSPost2010Prop41ColorRGB
 90
        0
102
RTVSPost2010PropOp41
 70
     1
102
RTVSPost2010Prop42
 90
       50
102
RTVSPost2010PropOp42
 70
     1
102
RTVSPost2010Prop43
 90
        3
102
RTVSPost2010PropOp43
 70
     1
102
RTVSPost2010Prop44ColorIndex
 90
        5
102
RTVSPost2010Prop44ColorRGB
 90
      255
102
RTVSPost2010PropOp44
 70
     1
102
RTVSPost2010Prop45
280
     0
102
RTVSPost2010PropOp45
 70
     1
102
RTVSPost2010Prop46
 90
       50
102
RTVSPost2010PropOp46
 70
     1
102
RTVSPost2010Prop47
 90
       50
102
RTVSPost2010PropOp47
 70
     1
102
RTVSPost2010Prop48
 90
       50
102
RTVSPost2010PropOp48
 70
     1
102
RTVSPost2010Prop49
280
     0
102
RTVSPost2010PropOp49
 70
     1
102
RTVSPost2010Prop50
 90
       50
102
RTVSPost2010PropOp50
 70
     1
102
RTVSPost2010Prop51ColorIndex
 90
      256
102
RTVSPost2010Prop51ColorRGB
 90
-16777216
102
RTVSPost2010PropOp51
 70
     0
102
RTVSPost2010Prop52
140
1.0
102
RTVSPost2010PropOp52
 70
     0
102
RTVSPost2010Prop53
 90
        2
102
RTVSPost2010PropOp53
 70
     1
102
RTVSPost2010Prop54
  1
strokes_ogs.tif
102
RTVSPost2010PropOp54
 70
     1
102
RTVSPost2010Prop55
280
     0
102
RTVSPost2010PropOp55
 70
     1
102
RTVSPost2010Prop56
140
1.0
102
RTVSPost2010PropOp56
 70
     1
102
RTVSPost2010Prop57
140
1.0
102
RTVSPost2010PropOp57
 70
     1
  0
XRECORD
  5
336
102
{ACAD_REACTORS
330
335
102
}
330
335
100
AcDbXrecord
280
     1
102
RTVSPropertyOp0
 70
     1
102
RTVSPropertyOp1
 70
     1
102
RTVSPropertyOp2
 70
     1
102
RTVSPropertyOp3
 70
     1
102
RTVSPropertyOp4
 70
     1
102
RTVSPropertyOp5
 70
     1
102
RTVSPropertyOp6
 70
     1
102
RTVSPropertyOp7
 70
     1
102
RTVSPropertyOp8
 70
     1
102
RTVSPropertyOp9
 70
     1
102
RTVSPropertyOp10
 70
     1
102
RTVSPropertyOp11
 70
     1
102
RTVSPropertyOp12
 70
     1
102
RTVSPropertyOp13
 70
     1
102
RTVSPropertyOp14
 70
     1
102
RTVSPropertyOp15
 70
     1
102
RTVSPropertyOp16
 70
     1
102
RTVSPropertyOp17
 70
     1
102
RTVSPropertyOp18
 70
     1
102
RTVSPropertyOp19
 70
     1
102
RTVSPropertyOp20
 70
     1
102
RTVSPropertyOp21
 70
     1
102
RTVSPropertyOp22
 70
     1
102
RTVSPropertyOp23
 70
     1
102
RTVSPropertyOp24
 70
     1
102
RTVSPropertyOp25
 70
     1
102
RTVSPropertyOp26
 70
     1
102
RTVSPropertyOp27
 70
     1
102
RTVSPropertyOp28
 70
     1
102
RTVSPropertyOp29
 70
     1
102
RTVSPropertyOp30
 70
     1
102
RTVSPropertyOp31
 70
     1
102
RTVSPropertyOp32
 70
     1
102
RTVSPropertyOp33
 70
     1
102
RTVSPropertyOp34
 70
     1
102
RTVSPropertyOp35
 70
     1
102
RTVSPropertyOp36
 70
     1
102
RTVSPropertyOp37
 70
     1
102
RTVSPropertyOp38
 70
     1
102
RTVSPropertyOp39
 70
     1
102
RTVSPropertyOp40
 70
     1
102
RTVSPropertyOp41
 70
     1
102
RTVSPropertyOp42
 70
     1
102
RTVSPropertyOp43
 70
     1
102
RTVSPropertyOp44
 70
     1
102
RTVSPropertyOp45
 70
     1
102
RTVSPropertyOp46
 70
     1
102
RTVSPropertyOp47
 70
     1
102
RTVSPropertyOp48
 70
     1
102
RTVSPropertyOp49
 70
     1
102
RTVSPropertyOp50
 70
     1
102
RTVSPropertyOp51
 70
     0
102
RTVSPropertyOp52
 70
     0
102
RTVSPropertyOp53
 70
     1
102
RTVSPropertyOp54
 70
     1
102
RTVSPropertyOp55
 70
     1
102
RTVSPropertyOp56
 70
     1
102
RTVSPropertyOp57
 70
     1
102
RTVSPost2010Prop28
280
     0
102
RTVSPost2010PropOp28
 70
     1
102
RTVSPost2010Prop29
280
     1
102
RTVSPost2010PropOp29
 70
     1
102
RTVSPost2010Prop30
280
     1
102
RTVSPost2010PropOp30
 70
     1
102
RTVSPost2010Prop31
280
     0
102
RTVSPost2010PropOp31
 70
     1
102
RTVSPost2010Prop32
280
     0
102
RTVSPost2010PropOp32
 70
     1
102
RTVSPost2010Prop33
280
     0
102
RTVSPost2010PropOp33
 70
     1
102
RTVSPost2010Prop34
280
     0
102
RTVSPost2010PropOp34
 70
     1
102
RTVSPost2010Prop35
280
     0
102
RTVSPost2010PropOp35
 70
     1
102
RTVSPost2010Prop36
280
     0
102
RTVSPost2010PropOp36
 70
     1
102
RTVSPost2010Prop37
 90
       50
102
RTVSPost2010PropOp37
 70
     1
102
RTVSPost2010Prop38
140
0.0
102
RTVSPost2010PropOp38
 70
     1
102
RTVSPost2010Prop39
140
1.0
102
RTVSPost2010PropOp39
 70
     1
102
RTVSPost2010Prop40
 90
        0
102
RTVSPost2010PropOp40
 70
     1
102
RTVSPost2010Prop41ColorIndex
 90
       18
102
RTVSPost2010Prop41ColorRGB
 90
        0
102
RTVSPost2010PropOp41
 70
     1
102
RTVSPost2010Prop42
 90
       50
102
RTVSPost2010PropOp42
 70
     1
102
RTVSPost2010Prop43
 90
        3
102
RTVSPost2010PropOp43
 70
     1
102
RTVSPost2010Prop44ColorIndex
 90
        5
102
RTVSPost2010Prop44ColorRGB
 90
      255
102
RTVSPost2010PropOp44
 70
     1
102
RTVSPost2010Prop45
280
     0
102
RTVSPost2010PropOp45
 70
     1
102
RTVSPost2010Prop46
 90
       50
102
RTVSPost2010PropOp46
 70
     1
102
RTVSPost2010Prop47
 90
       50
102
RTVSPost2010PropOp47
 70
     1
102
RTVSPost2010Prop48
 90
       50
102
RTVSPost2010PropOp48
 70
     1
102
RTVSPost2010Prop49
280
     0
102
RTVSPost2010PropOp49
 70
     1
102
RTVSPost2010Prop50
 90
       50
102
RTVSPost2010PropOp50
 70
     1
102
RTVSPost2010Prop51ColorIndex
 90
      256
102
RTVSPost2010Prop51ColorRGB
 90
-16777216
102
RTVSPost2010PropOp51
 70
     0
102
RTVSPost2010Prop52
140
1.0
102
RTVSPost2010PropOp52
 70
     0
102
RTVSPost2010Prop53
 90
        2
102
RTVSPost2010PropOp53
 70
     1
102
RTVSPost2010Prop54
  1
strokes_ogs.tif
102
RTVSPost2010PropOp54
 70
     1
102
RTVSPost2010Prop55
280
     0
102
RTVSPost2010PropOp55
 70
     1
102
RTVSPost2010Prop56
140
1.0
102
RTVSPost2010PropOp56
 70
     1
102
RTVSPost2010Prop57
140
1.0
102
RTVSPost2010PropOp57
 70
     1
  0
XRECORD
  5
33C
102
{ACAD_REACTORS
330
33B
102
}
330
33B
100
AcDbXrecord
280
     1
102
RTVSPropertyOp0
 70
     1
102
RTVSPropertyOp1
 70
     1
102
RTVSPropertyOp2
 70
     1
102
RTVSPropertyOp3
 70
     1
102
RTVSPropertyOp4
 70
     1
102
RTVSPropertyOp5
 70
     1
102
RTVSPropertyOp6
 70
     1
102
RTVSPropertyOp7
 70
     1
102
RTVSPropertyOp8
 70
     1
102
RTVSPropertyOp9
 70
     1
102
RTVSPropertyOp10
 70
     1
102
RTVSPropertyOp11
 70
     1
102
RTVSPropertyOp12
 70
     1
102
RTVSPropertyOp13
 70
     1
102
RTVSPropertyOp14
 70
     1
102
RTVSPropertyOp15
 70
     1
102
RTVSPropertyOp16
 70
     1
102
RTVSPropertyOp17
 70
     1
102
RTVSPropertyOp18
 70
     1
102
RTVSPropertyOp19
 70
     1
102
RTVSPropertyOp20
 70
     1
102
RTVSPropertyOp21
 70
     1
102
RTVSPropertyOp22
 70
     1
102
RTVSPropertyOp23
 70
     1
102
RTVSPropertyOp24
 70
     1
102
RTVSPropertyOp25
 70
     1
102
RTVSPropertyOp26
 70
     1
102
RTVSPropertyOp27
 70
     1
102
RTVSPropertyOp28
 70
     1
102
RTVSPropertyOp29
 70
     1
102
RTVSPropertyOp30
 70
     1
102
RTVSPropertyOp31
 70
     1
102
RTVSPropertyOp32
 70
     1
102
RTVSPropertyOp33
 70
     1
102
RTVSPropertyOp34
 70
     1
102
RTVSPropertyOp35
 70
     1
102
RTVSPropertyOp36
 70
     1
102
RTVSPropertyOp37
 70
     1
102
RTVSPropertyOp38
 70
     1
102
RTVSPropertyOp39
 70
     1
102
RTVSPropertyOp40
 70
     1
102
RTVSPropertyOp41
 70
     1
102
RTVSPropertyOp42
 70
     1
102
RTVSPropertyOp43
 70
     1
102
RTVSPropertyOp44
 70
     1
102
RTVSPropertyOp45
 70
     1
102
RTVSPropertyOp46
 70
     1
102
RTVSPropertyOp47
 70
     1
102
RTVSPropertyOp48
 70
     1
102
RTVSPropertyOp49
 70
     1
102
RTVSPropertyOp50
 70
     1
102
RTVSPropertyOp51
 70
     0
102
RTVSPropertyOp52
 70
     0
102
RTVSPropertyOp53
 70
     1
102
RTVSPropertyOp54
 70
     1
102
RTVSPropertyOp55
 70
     1
102
RTVSPropertyOp56
 70
     1
102
RTVSPropertyOp57
 70
     1
102
RTVSPost2010Prop28
280
     0
102
RTVSPost2010PropOp28
 70
     1
102
RTVSPost2010Prop29
280
     1
102
RTVSPost2010PropOp29
 70
     1
102
RTVSPost2010Prop30
280
     1
102
RTVSPost2010PropOp30
 70
     1
102
RTVSPost2010Prop31
280
     0
102
RTVSPost2010PropOp31
 70
     1
102
RTVSPost2010Prop32
280
     0
102
RTVSPost2010PropOp32
 70
     1
102
RTVSPost2010Prop33
280
     0
102
RTVSPost2010PropOp33
 70
     1
102
RTVSPost2010Prop34
280
     0
102
RTVSPost2010PropOp34
 70
     1
102
RTVSPost2010Prop35
280
     0
102
RTVSPost2010PropOp35
 70
     1
102
RTVSPost2010Prop36
280
     0
102
RTVSPost2010PropOp36
 70
     1
102
RTVSPost2010Prop37
 90
       50
102
RTVSPost2010PropOp37
 70
     1
102
RTVSPost2010Prop38
140
0.0
102
RTVSPost2010PropOp38
 70
     1
102
RTVSPost2010Prop39
140
1.0
102
RTVSPost2010PropOp39
 70
     1
102
RTVSPost2010Prop40
 90
        0
102
RTVSPost2010PropOp40
 70
     1
102
RTVSPost2010Prop41ColorIndex
 90
       18
102
RTVSPost2010Prop41ColorRGB
 90
        0
102
RTVSPost2010PropOp41
 70
     1
102
RTVSPost2010Prop42
 90
       50
102
RTVSPost2010PropOp42
 70
     1
102
RTVSPost2010Prop43
 90
        3
102
RTVSPost2010PropOp43
 70
     1
102
RTVSPost2010Prop44ColorIndex
 90
        5
102
RTVSPost2010Prop44ColorRGB
 90
      255
102
RTVSPost2010PropOp44
 70
     1
102
RTVSPost2010Prop45
280
     0
102
RTVSPost2010PropOp45
 70
     1
102
RTVSPost2010Prop46
 90
       50
102
RTVSPost2010PropOp46
 70
     1
102
RTVSPost2010Prop47
 90
       50
102
RTVSPost2010PropOp47
 70
     1
102
RTVSPost2010Prop48
 90
       50
102
RTVSPost2010PropOp48
 70
     1
102
RTVSPost2010Prop49
280
     0
102
RTVSPost2010PropOp49
 70
     1
102
RTVSPost2010Prop50
 90
       50
102
RTVSPost2010PropOp50
 70
     1
102
RTVSPost2010Prop51ColorIndex
 90
      256
102
RTVSPost2010Prop51ColorRGB
 90
-16777216
102
RTVSPost2010PropOp51
 70
     0
102
RTVSPost2010Prop52
140
1.0
102
RTVSPost2010PropOp52
 70
     0
102
RTVSPost2010Prop53
 90
        2
102
RTVSPost2010PropOp53
 70
     1
102
RTVSPost2010Prop54
  1
strokes_ogs.tif
102
RTVSPost2010PropOp54
 70
     1
102
RTVSPost2010Prop55
280
     0
102
RTVSPost2010PropOp55
 70
     1
102
RTVSPost2010Prop56
140
1.0
102
RTVSPost2010PropOp56
 70
     1
102
RTVSPost2010Prop57
140
1.0
102
RTVSPost2010PropOp57
 70
     1
  0
XRECORD
  5
350
102
{ACAD_REACTORS
330
34F
102
}
330
34F
100
AcDbXrecord
280
     1
102
RTVSPropertyOp0
 70
     0
102
RTVSPropertyOp1
 70
     0
102
RTVSPropertyOp2
 70
     0
102
RTVSPropertyOp3
 70
     0
102
RTVSPropertyOp4
 70
     0
102
RTVSPropertyOp5
 70
     0
102
RTVSPropertyOp6
 70
     0
102
RTVSPropertyOp7
 70
     0
102
RTVSPropertyOp8
 70
     0
102
RTVSPropertyOp9
 70
     0
102
RTVSPropertyOp10
 70
     0
102
RTVSPropertyOp11
 70
     0
102
RTVSPropertyOp12
 70
     0
102
RTVSPropertyOp13
 70
     0
102
RTVSPropertyOp14
 70
     2
102
RTVSPropertyOp15
 70
     0
102
RTVSPropertyOp16
 70
     0
102
RTVSPropertyOp17
 70
     0
102
RTVSPropertyOp18
 70
     0
102
RTVSPropertyOp19
 70
     0
102
RTVSPropertyOp20
 70
     0
102
RTVSPropertyOp21
 70
     0
102
RTVSPropertyOp22
 70
     0
102
RTVSPropertyOp23
 70
     0
102
RTVSPropertyOp24
 70
     0
102
RTVSPropertyOp25
 70
     0
102
RTVSPropertyOp26
 70
     0
102
RTVSPropertyOp27
 70
     0
102
RTVSPropertyOp28
 70
     0
102
RTVSPropertyOp29
 70
     0
102
RTVSPropertyOp30
 70
     0
102
RTVSPropertyOp31
 70
     0
102
RTVSPropertyOp32
 70
     0
102
RTVSPropertyOp33
 70
     0
102
RTVSPropertyOp34
 70
     0
102
RTVSPropertyOp35
 70
     0
102
RTVSPropertyOp36
 70
     0
102
RTVSPropertyOp37
 70
     0
102
RTVSPropertyOp38
 70
     0
102
RTVSPropertyOp39
 70
     0
102
RTVSPropertyOp40
 70
     0
102
RTVSPropertyOp41
 70
     0
102
RTVSPropertyOp42
 70
     0
102
RTVSPropertyOp43
 70
     0
102
RTVSPropertyOp44
 70
     0
102
RTVSPropertyOp45
 70
     0
102
RTVSPropertyOp46
 70
     0
102
RTVSPropertyOp47
 70
     0
102
RTVSPropertyOp48
 70
     0
102
RTVSPropertyOp49
 70
     0
102
RTVSPropertyOp50
 70
     0
102
RTVSPropertyOp51
 70
     0
102
RTVSPropertyOp52
 70
     0
102
RTVSPropertyOp53
 70
     0
102
RTVSPropertyOp54
 70
     0
102
RTVSPropertyOp55
 70
     0
102
RTVSPropertyOp56
 70
     0
102
RTVSPropertyOp57
 70
     0
102
RTVSPost2010Prop28
280
     0
102
RTVSPost2010PropOp28
 70
     0
102
RTVSPost2010Prop29
280
     1
102
RTVSPost2010PropOp29
 70
     0
102
RTVSPost2010Prop30
280
     1
102
RTVSPost2010PropOp30
 70
     0
102
RTVSPost2010Prop31
280
     0
102
RTVSPost2010PropOp31
 70
     0
102
RTVSPost2010Prop32
280
     0
102
RTVSPost2010PropOp32
 70
     0
102
RTVSPost2010Prop33
280
     0
102
RTVSPost2010PropOp33
 70
     0
102
RTVSPost2010Prop34
280
     0
102
RTVSPost2010PropOp34
 70
     0
102
RTVSPost2010Prop35
280
     0
102
RTVSPost2010PropOp35
 70
     0
102
RTVSPost2010Prop36
280
     0
102
RTVSPost2010PropOp36
 70
     0
102
RTVSPost2010Prop37
 90
       50
102
RTVSPost2010PropOp37
 70
     0
102
RTVSPost2010Prop38
140
0.0
102
RTVSPost2010PropOp38
 70
     0
102
RTVSPost2010Prop39
140
1.0
102
RTVSPost2010PropOp39
 70
     0
102
RTVSPost2010Prop40
 90
        0
102
RTVSPost2010PropOp40
 70
     0
102
RTVSPost2010Prop41ColorIndex
 90
       18
102
RTVSPost2010Prop41ColorRGB
 90
        0
102
RTVSPost2010PropOp41
 70
     0
102
RTVSPost2010Prop42
 90
       50
102
RTVSPost2010PropOp42
 70
     0
102
RTVSPost2010Prop43
 90
        3
102
RTVSPost2010PropOp43
 70
     0
102
RTVSPost2010Prop44ColorIndex
 90
        5
102
RTVSPost2010Prop44ColorRGB
 90
      255
102
RTVSPost2010PropOp44
 70
     0
102
RTVSPost2010Prop45
280
     0
102
RTVSPost2010PropOp45
 70
     0
102
RTVSPost2010Prop46
 90
       50
102
RTVSPost2010PropOp46
 70
     0
102
RTVSPost2010Prop47
 90
       50
102
RTVSPost2010PropOp47
 70
     0
102
RTVSPost2010Prop48
 90
       50
102
RTVSPost2010PropOp48
 70
     0
102
RTVSPost2010Prop49
280
     0
102
RTVSPost2010PropOp49
 70
     0
102
RTVSPost2010Prop50
 90
       50
102
RTVSPost2010PropOp50
 70
     0
102
RTVSPost2010Prop51ColorIndex
 90
      256
102
RTVSPost2010Prop51ColorRGB
 90
-16777216
102
RTVSPost2010PropOp51
 70
     0
102
RTVSPost2010Prop52
140
1.0
102
RTVSPost2010PropOp52
 70
     0
102
RTVSPost2010Prop53
 90
        2
102
RTVSPost2010PropOp53
 70
     0
102
RTVSPost2010Prop54
  1
strokes_ogs.tif
102
RTVSPost2010PropOp54
 70
     0
102
RTVSPost2010Prop55
280
     0
102
RTVSPost2010PropOp55
 70
     0
102
RTVSPost2010Prop56
140
1.0
102
RTVSPost2010PropOp56
 70
     0
102
RTVSPost2010Prop57
140
1.0
102
RTVSPost2010PropOp57
 70
     0
  0
XRECORD
  5
34A
102
{ACAD_REACTORS
330
349
102
}
330
349
100
AcDbXrecord
280
     1
102
RTVSPropertyOp0
 70
     1
102
RTVSPropertyOp1
 70
     1
102
RTVSPropertyOp2
 70
     1
102
RTVSPropertyOp3
 70
     1
102
RTVSPropertyOp4
 70
     1
102
RTVSPropertyOp5
 70
     1
102
RTVSPropertyOp6
 70
     1
102
RTVSPropertyOp7
 70
     1
102
RTVSPropertyOp8
 70
     1
102
RTVSPropertyOp9
 70
     1
102
RTVSPropertyOp10
 70
     1
102
RTVSPropertyOp11
 70
     1
102
RTVSPropertyOp12
 70
     1
102
RTVSPropertyOp13
 70
     1
102
RTVSPropertyOp14
 70
     1
102
RTVSPropertyOp15
 70
     1
102
RTVSPropertyOp16
 70
     1
102
RTVSPropertyOp17
 70
     1
102
RTVSPropertyOp18
 70
     1
102
RTVSPropertyOp19
 70
     1
102
RTVSPropertyOp20
 70
     1
102
RTVSPropertyOp21
 70
     1
102
RTVSPropertyOp22
 70
     1
102
RTVSPropertyOp23
 70
     1
102
RTVSPropertyOp24
 70
     1
102
RTVSPropertyOp25
 70
     1
102
RTVSPropertyOp26
 70
     1
102
RTVSPropertyOp27
 70
     1
102
RTVSPropertyOp28
 70
     1
102
RTVSPropertyOp29
 70
     1
102
RTVSPropertyOp30
 70
     1
102
RTVSPropertyOp31
 70
     1
102
RTVSPropertyOp32
 70
     1
102
RTVSPropertyOp33
 70
     1
102
RTVSPropertyOp34
 70
     1
102
RTVSPropertyOp35
 70
     1
102
RTVSPropertyOp36
 70
     1
102
RTVSPropertyOp37
 70
     1
102
RTVSPropertyOp38
 70
     1
102
RTVSPropertyOp39
 70
     1
102
RTVSPropertyOp40
 70
     1
102
RTVSPropertyOp41
 70
     1
102
RTVSPropertyOp42
 70
     1
102
RTVSPropertyOp43
 70
     1
102
RTVSPropertyOp44
 70
     1
102
RTVSPropertyOp45
 70
     1
102
RTVSPropertyOp46
 70
     1
102
RTVSPropertyOp47
 70
     1
102
RTVSPropertyOp48
 70
     1
102
RTVSPropertyOp49
 70
     1
102
RTVSPropertyOp50
 70
     1
102
RTVSPropertyOp51
 70
     0
102
RTVSPropertyOp52
 70
     0
102
RTVSPropertyOp53
 70
     1
102
RTVSPropertyOp54
 70
     1
102
RTVSPropertyOp55
 70
     1
102
RTVSPropertyOp56
 70
     1
102
RTVSPropertyOp57
 70
     1
102
RTVSPost2010Prop28
280
     0
102
RTVSPost2010PropOp28
 70
     1
102
RTVSPost2010Prop29
280
     1
102
RTVSPost2010PropOp29
 70
     1
102
RTVSPost2010Prop30
280
     1
102
RTVSPost2010PropOp30
 70
     1
102
RTVSPost2010Prop31
280
     0
102
RTVSPost2010PropOp31
 70
     1
102
RTVSPost2010Prop32
280
     0
102
RTVSPost2010PropOp32
 70
     1
102
RTVSPost2010Prop33
280
     0
102
RTVSPost2010PropOp33
 70
     1
102
RTVSPost2010Prop34
280
     0
102
RTVSPost2010PropOp34
 70
     1
102
RTVSPost2010Prop35
280
     0
102
RTVSPost2010PropOp35
 70
     1
102
RTVSPost2010Prop36
280
     0
102
RTVSPost2010PropOp36
 70
     1
102
RTVSPost2010Prop37
 90
       50
102
RTVSPost2010PropOp37
 70
     1
102
RTVSPost2010Prop38
140
0.0
102
RTVSPost2010PropOp38
 70
     1
102
RTVSPost2010Prop39
140
1.0
102
RTVSPost2010PropOp39
 70
     1
102
RTVSPost2010Prop40
 90
        0
102
RTVSPost2010PropOp40
 70
     1
102
RTVSPost2010Prop41ColorIndex
 90
       18
102
RTVSPost2010Prop41ColorRGB
 90
        0
102
RTVSPost2010PropOp41
 70
     1
102
RTVSPost2010Prop42
 90
       50
102
RTVSPost2010PropOp42
 70
     1
102
RTVSPost2010Prop43
 90
        3
102
RTVSPost2010PropOp43
 70
     1
102
RTVSPost2010Prop44ColorIndex
 90
        5
102
RTVSPost2010Prop44ColorRGB
 90
      255
102
RTVSPost2010PropOp44
 70
     1
102
RTVSPost2010Prop45
280
     0
102
RTVSPost2010PropOp45
 70
     1
102
RTVSPost2010Prop46
 90
       50
102
RTVSPost2010PropOp46
 70
     1
102
RTVSPost2010Prop47
 90
       50
102
RTVSPost2010PropOp47
 70
     1
102
RTVSPost2010Prop48
 90
       50
102
RTVSPost2010PropOp48
 70
     1
102
RTVSPost2010Prop49
280
     0
102
RTVSPost2010PropOp49
 70
     1
102
RTVSPost2010Prop50
 90
       50
102
RTVSPost2010PropOp50
 70
     1
102
RTVSPost2010Prop51ColorIndex
 90
      256
102
RTVSPost2010Prop51ColorRGB
 90
-16777216
102
RTVSPost2010PropOp51
 70
     0
102
RTVSPost2010Prop52
140
1.0
102
RTVSPost2010PropOp52
 70
     0
102
RTVSPost2010Prop53
 90
        2
102
RTVSPost2010PropOp53
 70
     1
102
RTVSPost2010Prop54
  1
strokes_ogs.tif
102
RTVSPost2010PropOp54
 70
     1
102
RTVSPost2010Prop55
280
     0
102
RTVSPost2010PropOp55
 70
     1
102
RTVSPost2010Prop56
140
1.0
102
RTVSPost2010PropOp56
 70
     1
102
RTVSPost2010Prop57
140
1.0
102
RTVSPost2010PropOp57
 70
     1
  0
XRECORD
  5
352
102
{ACAD_REACTORS
330
351
102
}
330
351
100
AcDbXrecord
280
     1
102
RTVSPropertyOp0
 70
     0
102
RTVSPropertyOp1
 70
     0
102
RTVSPropertyOp2
 70
     0
102
RTVSPropertyOp3
 70
     0
102
RTVSPropertyOp4
 70
     0
102
RTVSPropertyOp5
 70
     0
102
RTVSPropertyOp6
 70
     0
102
RTVSPropertyOp7
 70
     0
102
RTVSPropertyOp8
 70
     0
102
RTVSPropertyOp9
 70
     0
102
RTVSPropertyOp10
 70
     0
102
RTVSPropertyOp11
 70
     0
102
RTVSPropertyOp12
 70
     0
102
RTVSPropertyOp13
 70
     0
102
RTVSPropertyOp14
 70
     2
102
RTVSPropertyOp15
 70
     0
102
RTVSPropertyOp16
 70
     0
102
RTVSPropertyOp17
 70
     0
102
RTVSPropertyOp18
 70
     0
102
RTVSPropertyOp19
 70
     0
102
RTVSPropertyOp20
 70
     0
102
RTVSPropertyOp21
 70
     0
102
RTVSPropertyOp22
 70
     0
102
RTVSPropertyOp23
 70
     0
102
RTVSPropertyOp24
 70
     0
102
RTVSPropertyOp25
 70
     0
102
RTVSPropertyOp26
 70
     0
102
RTVSPropertyOp27
 70
     0
102
RTVSPropertyOp28
 70
     0
102
RTVSPropertyOp29
 70
     0
102
RTVSPropertyOp30
 70
     0
102
RTVSPropertyOp31
 70
     0
102
RTVSPropertyOp32
 70
     0
102
RTVSPropertyOp33
 70
     0
102
RTVSPropertyOp34
 70
     0
102
RTVSPropertyOp35
 70
     0
102
RTVSPropertyOp36
 70
     0
102
RTVSPropertyOp37
 70
     0
102
RTVSPropertyOp38
 70
     0
102
RTVSPropertyOp39
 70
     0
102
RTVSPropertyOp40
 70
     0
102
RTVSPropertyOp41
 70
     0
102
RTVSPropertyOp42
 70
     0
102
RTVSPropertyOp43
 70
     0
102
RTVSPropertyOp44
 70
     0
102
RTVSPropertyOp45
 70
     0
102
RTVSPropertyOp46
 70
     0
102
RTVSPropertyOp47
 70
     0
102
RTVSPropertyOp48
 70
     0
102
RTVSPropertyOp49
 70
     0
102
RTVSPropertyOp50
 70
     0
102
RTVSPropertyOp51
 70
     0
102
RTVSPropertyOp52
 70
     0
102
RTVSPropertyOp53
 70
     0
102
RTVSPropertyOp54
 70
     0
102
RTVSPropertyOp55
 70
     0
102
RTVSPropertyOp56
 70
     0
102
RTVSPropertyOp57
 70
     0
102
RTVSPost2010Prop28
280
     0
102
RTVSPost2010PropOp28
 70
     0
102
RTVSPost2010Prop29
280
     1
102
RTVSPost2010PropOp29
 70
     0
102
RTVSPost2010Prop30
280
     1
102
RTVSPost2010PropOp30
 70
     0
102
RTVSPost2010Prop31
280
     0
102
RTVSPost2010PropOp31
 70
     0
102
RTVSPost2010Prop32
280
     0
102
RTVSPost2010PropOp32
 70
     0
102
RTVSPost2010Prop33
280
     0
102
RTVSPost2010PropOp33
 70
     0
102
RTVSPost2010Prop34
280
     0
102
RTVSPost2010PropOp34
 70
     0
102
RTVSPost2010Prop35
280
     0
102
RTVSPost2010PropOp35
 70
     0
102
RTVSPost2010Prop36
280
     0
102
RTVSPost2010PropOp36
 70
     0
102
RTVSPost2010Prop37
 90
       50
102
RTVSPost2010PropOp37
 70
     0
102
RTVSPost2010Prop38
140
0.0
102
RTVSPost2010PropOp38
 70
     0
102
RTVSPost2010Prop39
140
1.0
102
RTVSPost2010PropOp39
 70
     0
102
RTVSPost2010Prop40
 90
        0
102
RTVSPost2010PropOp40
 70
     0
102
RTVSPost2010Prop41ColorIndex
 90
       18
102
RTVSPost2010Prop41ColorRGB
 90
        0
102
RTVSPost2010PropOp41
 70
     0
102
RTVSPost2010Prop42
 90
       50
102
RTVSPost2010PropOp42
 70
     0
102
RTVSPost2010Prop43
 90
        3
102
RTVSPost2010PropOp43
 70
     0
102
RTVSPost2010Prop44ColorIndex
 90
        5
102
RTVSPost2010Prop44ColorRGB
 90
      255
102
RTVSPost2010PropOp44
 70
     0
102
RTVSPost2010Prop45
280
     0
102
RTVSPost2010PropOp45
 70
     0
102
RTVSPost2010Prop46
 90
       50
102
RTVSPost2010PropOp46
 70
     0
102
RTVSPost2010Prop47
 90
       50
102
RTVSPost2010PropOp47
 70
     0
102
RTVSPost2010Prop48
 90
       50
102
RTVSPost2010PropOp48
 70
     0
102
RTVSPost2010Prop49
280
     0
102
RTVSPost2010PropOp49
 70
     0
102
RTVSPost2010Prop50
 90
       50
102
RTVSPost2010PropOp50
 70
     0
102
RTVSPost2010Prop51ColorIndex
 90
      256
102
RTVSPost2010Prop51ColorRGB
 90
-16777216
102
RTVSPost2010PropOp51
 70
     0
102
RTVSPost2010Prop52
140
1.0
102
RTVSPost2010PropOp52
 70
     0
102
RTVSPost2010Prop53
 90
        2
102
RTVSPost2010PropOp53
 70
     0
102
RTVSPost2010Prop54
  1
strokes_ogs.tif
102
RTVSPost2010PropOp54
 70
     0
102
RTVSPost2010Prop55
280
     0
102
RTVSPost2010PropOp55
 70
     0
102
RTVSPost2010Prop56
140
1.0
102
RTVSPost2010PropOp56
 70
     0
102
RTVSPost2010Prop57
140
1.0
102
RTVSPost2010PropOp57
 70
     0
  0
XRECORD
  5
340
102
{ACAD_REACTORS
330
33F
102
}
330
33F
100
AcDbXrecord
280
     1
102
RTVSPropertyOp0
 70
     1
102
RTVSPropertyOp1
 70
     1
102
RTVSPropertyOp2
 70
     1
102
RTVSPropertyOp3
 70
     1
102
RTVSPropertyOp4
 70
     1
102
RTVSPropertyOp5
 70
     1
102
RTVSPropertyOp6
 70
     1
102
RTVSPropertyOp7
 70
     1
102
RTVSPropertyOp8
 70
     1
102
RTVSPropertyOp9
 70
     1
102
RTVSPropertyOp10
 70
     1
102
RTVSPropertyOp11
 70
     1
102
RTVSPropertyOp12
 70
     1
102
RTVSPropertyOp13
 70
     1
102
RTVSPropertyOp14
 70
     1
102
RTVSPropertyOp15
 70
     1
102
RTVSPropertyOp16
 70
     1
102
RTVSPropertyOp17
 70
     1
102
RTVSPropertyOp18
 70
     1
102
RTVSPropertyOp19
 70
     1
102
RTVSPropertyOp20
 70
     1
102
RTVSPropertyOp21
 70
     1
102
RTVSPropertyOp22
 70
     1
102
RTVSPropertyOp23
 70
     1
102
RTVSPropertyOp24
 70
     1
102
RTVSPropertyOp25
 70
     1
102
RTVSPropertyOp26
 70
     1
102
RTVSPropertyOp27
 70
     1
102
RTVSPropertyOp28
 70
     1
102
RTVSPropertyOp29
 70
     1
102
RTVSPropertyOp30
 70
     1
102
RTVSPropertyOp31
 70
     1
102
RTVSPropertyOp32
 70
     1
102
RTVSPropertyOp33
 70
     1
102
RTVSPropertyOp34
 70
     1
102
RTVSPropertyOp35
 70
     1
102
RTVSPropertyOp36
 70
     1
102
RTVSPropertyOp37
 70
     1
102
RTVSPropertyOp38
 70
     1
102
RTVSPropertyOp39
 70
     1
102
RTVSPropertyOp40
 70
     1
102
RTVSPropertyOp41
 70
     1
102
RTVSPropertyOp42
 70
     1
102
RTVSPropertyOp43
 70
     1
102
RTVSPropertyOp44
 70
     1
102
RTVSPropertyOp45
 70
     1
102
RTVSPropertyOp46
 70
     1
102
RTVSPropertyOp47
 70
     1
102
RTVSPropertyOp48
 70
     1
102
RTVSPropertyOp49
 70
     1
102
RTVSPropertyOp50
 70
     1
102
RTVSPropertyOp51
 70
     0
102
RTVSPropertyOp52
 70
     0
102
RTVSPropertyOp53
 70
     1
102
RTVSPropertyOp54
 70
     1
102
RTVSPropertyOp55
 70
     1
102
RTVSPropertyOp56
 70
     1
102
RTVSPropertyOp57
 70
     1
102
RTVSPost2010Prop28
280
     0
102
RTVSPost2010PropOp28
 70
     1
102
RTVSPost2010Prop29
280
     1
102
RTVSPost2010PropOp29
 70
     1
102
RTVSPost2010Prop30
280
     1
102
RTVSPost2010PropOp30
 70
     1
102
RTVSPost2010Prop31
280
     0
102
RTVSPost2010PropOp31
 70
     1
102
RTVSPost2010Prop32
280
     0
102
RTVSPost2010PropOp32
 70
     1
102
RTVSPost2010Prop33
280
     0
102
RTVSPost2010PropOp33
 70
     1
102
RTVSPost2010Prop34
280
     0
102
RTVSPost2010PropOp34
 70
     1
102
RTVSPost2010Prop35
280
     0
102
RTVSPost2010PropOp35
 70
     1
102
RTVSPost2010Prop36
280
     0
102
RTVSPost2010PropOp36
 70
     1
102
RTVSPost2010Prop37
 90
       50
102
RTVSPost2010PropOp37
 70
     1
102
RTVSPost2010Prop38
140
0.0
102
RTVSPost2010PropOp38
 70
     1
102
RTVSPost2010Prop39
140
1.0
102
RTVSPost2010PropOp39
 70
     1
102
RTVSPost2010Prop40
 90
        0
102
RTVSPost2010PropOp40
 70
     1
102
RTVSPost2010Prop41ColorIndex
 90
       18
102
RTVSPost2010Prop41ColorRGB
 90
        0
102
RTVSPost2010PropOp41
 70
     1
102
RTVSPost2010Prop42
 90
       50
102
RTVSPost2010PropOp42
 70
     1
102
RTVSPost2010Prop43
 90
        3
102
RTVSPost2010PropOp43
 70
     1
102
RTVSPost2010Prop44ColorIndex
 90
        5
102
RTVSPost2010Prop44ColorRGB
 90
      255
102
RTVSPost2010PropOp44
 70
     1
102
RTVSPost2010Prop45
280
     0
102
RTVSPost2010PropOp45
 70
     1
102
RTVSPost2010Prop46
 90
       50
102
RTVSPost2010PropOp46
 70
     1
102
RTVSPost2010Prop47
 90
       50
102
RTVSPost2010PropOp47
 70
     1
102
RTVSPost2010Prop48
 90
       50
102
RTVSPost2010PropOp48
 70
     1
102
RTVSPost2010Prop49
280
     0
102
RTVSPost2010PropOp49
 70
     1
102
RTVSPost2010Prop50
 90
       50
102
RTVSPost2010PropOp50
 70
     1
102
RTVSPost2010Prop51ColorIndex
 90
      256
102
RTVSPost2010Prop51ColorRGB
 90
-16777216
102
RTVSPost2010PropOp51
 70
     0
102
RTVSPost2010Prop52
140
1.0
102
RTVSPost2010PropOp52
 70
     0
102
RTVSPost2010Prop53
 90
        2
102
RTVSPost2010PropOp53
 70
     1
102
RTVSPost2010Prop54
  1
strokes_ogs.tif
102
RTVSPost2010PropOp54
 70
     1
102
RTVSPost2010Prop55
280
     0
102
RTVSPost2010PropOp55
 70
     1
102
RTVSPost2010Prop56
140
1.0
102
RTVSPost2010PropOp56
 70
     1
102
RTVSPost2010Prop57
140
1.0
102
RTVSPost2010PropOp57
 70
     1
  0
XRECORD
  5
35E
102
{ACAD_REACTORS
330
35D
102
}
330
35D
100
AcDbXrecord
280
     1
102
RTVSPropertyOp0
 70
     1
102
RTVSPropertyOp1
 70
     1
102
RTVSPropertyOp2
 70
     1
102
RTVSPropertyOp3
 70
     1
102
RTVSPropertyOp4
 70
     1
102
RTVSPropertyOp5
 70
     1
102
RTVSPropertyOp6
 70
     1
102
RTVSPropertyOp7
 70
     1
102
RTVSPropertyOp8
 70
     1
102
RTVSPropertyOp9
 70
     1
102
RTVSPropertyOp10
 70
     1
102
RTVSPropertyOp11
 70
     1
102
RTVSPropertyOp12
 70
     1
102
RTVSPropertyOp13
 70
     1
102
RTVSPropertyOp14
 70
     1
102
RTVSPropertyOp15
 70
     1
102
RTVSPropertyOp16
 70
     1
102
RTVSPropertyOp17
 70
     1
102
RTVSPropertyOp18
 70
     1
102
RTVSPropertyOp19
 70
     1
102
RTVSPropertyOp20
 70
     1
102
RTVSPropertyOp21
 70
     1
102
RTVSPropertyOp22
 70
     1
102
RTVSPropertyOp23
 70
     1
102
RTVSPropertyOp24
 70
     1
102
RTVSPropertyOp25
 70
     1
102
RTVSPropertyOp26
 70
     1
102
RTVSPropertyOp27
 70
     1
102
RTVSPropertyOp28
 70
     1
102
RTVSPropertyOp29
 70
     1
102
RTVSPropertyOp30
 70
     1
102
RTVSPropertyOp31
 70
     1
102
RTVSPropertyOp32
 70
     1
102
RTVSPropertyOp33
 70
     1
102
RTVSPropertyOp34
 70
     1
102
RTVSPropertyOp35
 70
     1
102
RTVSPropertyOp36
 70
     1
102
RTVSPropertyOp37
 70
     1
102
RTVSPropertyOp38
 70
     1
102
RTVSPropertyOp39
 70
     1
102
RTVSPropertyOp40
 70
     1
102
RTVSPropertyOp41
 70
     1
102
RTVSPropertyOp42
 70
     1
102
RTVSPropertyOp43
 70
     1
102
RTVSPropertyOp44
 70
     1
102
RTVSPropertyOp45
 70
     1
102
RTVSPropertyOp46
 70
     1
102
RTVSPropertyOp47
 70
     1
102
RTVSPropertyOp48
 70
     1
102
RTVSPropertyOp49
 70
     1
102
RTVSPropertyOp50
 70
     1
102
RTVSPropertyOp51
 70
     0
102
RTVSPropertyOp52
 70
     0
102
RTVSPropertyOp53
 70
     1
102
RTVSPropertyOp54
 70
     1
102
RTVSPropertyOp55
 70
     1
102
RTVSPropertyOp56
 70
     1
102
RTVSPropertyOp57
 70
     1
102
RTVSPost2010Prop28
280
     0
102
RTVSPost2010PropOp28
 70
     1
102
RTVSPost2010Prop29
280
     1
102
RTVSPost2010PropOp29
 70
     1
102
RTVSPost2010Prop30
280
     1
102
RTVSPost2010PropOp30
 70
     1
102
RTVSPost2010Prop31
280
     0
102
RTVSPost2010PropOp31
 70
     1
102
RTVSPost2010Prop32
280
     0
102
RTVSPost2010PropOp32
 70
     1
102
RTVSPost2010Prop33
280
     0
102
RTVSPost2010PropOp33
 70
     1
102
RTVSPost2010Prop34
280
     0
102
RTVSPost2010PropOp34
 70
     1
102
RTVSPost2010Prop35
280
     0
102
RTVSPost2010PropOp35
 70
     1
102
RTVSPost2010Prop36
280
     0
102
RTVSPost2010PropOp36
 70
     1
102
RTVSPost2010Prop37
 90
       50
102
RTVSPost2010PropOp37
 70
     1
102
RTVSPost2010Prop38
140
0.0
102
RTVSPost2010PropOp38
 70
     1
102
RTVSPost2010Prop39
140
1.0
102
RTVSPost2010PropOp39
 70
     1
102
RTVSPost2010Prop40
 90
        0
102
RTVSPost2010PropOp40
 70
     1
102
RTVSPost2010Prop41ColorIndex
 90
       18
102
RTVSPost2010Prop41ColorRGB
 90
        0
102
RTVSPost2010PropOp41
 70
     1
102
RTVSPost2010Prop42
 90
       50
102
RTVSPost2010PropOp42
 70
     1
102
RTVSPost2010Prop43
 90
        3
102
RTVSPost2010PropOp43
 70
     1
102
RTVSPost2010Prop44ColorIndex
 90
        5
102
RTVSPost2010Prop44ColorRGB
 90
      255
102
RTVSPost2010PropOp44
 70
     1
102
RTVSPost2010Prop45
280
     0
102
RTVSPost2010PropOp45
 70
     1
102
RTVSPost2010Prop46
 90
       50
102
RTVSPost2010PropOp46
 70
     1
102
RTVSPost2010Prop47
 90
       50
102
RTVSPost2010PropOp47
 70
     1
102
RTVSPost2010Prop48
 90
       50
102
RTVSPost2010PropOp48
 70
     1
102
RTVSPost2010Prop49
280
     0
102
RTVSPost2010PropOp49
 70
     1
102
RTVSPost2010Prop50
 90
       50
102
RTVSPost2010PropOp50
 70
     1
102
RTVSPost2010Prop51ColorIndex
 90
      256
102
RTVSPost2010Prop51ColorRGB
 90
-16777216
102
RTVSPost2010PropOp51
 70
     0
102
RTVSPost2010Prop52
140
1.0
102
RTVSPost2010PropOp52
 70
     0
102
RTVSPost2010Prop53
 90
        2
102
RTVSPost2010PropOp53
 70
     1
102
RTVSPost2010Prop54
  1
strokes_ogs.tif
102
RTVSPost2010PropOp54
 70
     1
102
RTVSPost2010Prop55
280
     0
102
RTVSPost2010PropOp55
 70
     1
102
RTVSPost2010Prop56
140
1.0
102
RTVSPost2010PropOp56
 70
     1
102
RTVSPost2010Prop57
140
1.0
102
RTVSPost2010PropOp57
 70
     1
  0
XRECORD
  5
35C
102
{ACAD_REACTORS
330
35B
102
}
330
35B
100
AcDbXrecord
280
     1
102
RTVSPropertyOp0
 70
     1
102
RTVSPropertyOp1
 70
     1
102
RTVSPropertyOp2
 70
     1
102
RTVSPropertyOp3
 70
     1
102
RTVSPropertyOp4
 70
     1
102
RTVSPropertyOp5
 70
     1
102
RTVSPropertyOp6
 70
     1
102
RTVSPropertyOp7
 70
     1
102
RTVSPropertyOp8
 70
     1
102
RTVSPropertyOp9
 70
     1
102
RTVSPropertyOp10
 70
     1
102
RTVSPropertyOp11
 70
     1
102
RTVSPropertyOp12
 70
     1
102
RTVSPropertyOp13
 70
     1
102
RTVSPropertyOp14
 70
     1
102
RTVSPropertyOp15
 70
     1
102
RTVSPropertyOp16
 70
     1
102
RTVSPropertyOp17
 70
     1
102
RTVSPropertyOp18
 70
     1
102
RTVSPropertyOp19
 70
     1
102
RTVSPropertyOp20
 70
     1
102
RTVSPropertyOp21
 70
     1
102
RTVSPropertyOp22
 70
     1
102
RTVSPropertyOp23
 70
     1
102
RTVSPropertyOp24
 70
     1
102
RTVSPropertyOp25
 70
     1
102
RTVSPropertyOp26
 70
     1
102
RTVSPropertyOp27
 70
     1
102
RTVSPropertyOp28
 70
     1
102
RTVSPropertyOp29
 70
     1
102
RTVSPropertyOp30
 70
     1
102
RTVSPropertyOp31
 70
     1
102
RTVSPropertyOp32
 70
     1
102
RTVSPropertyOp33
 70
     1
102
RTVSPropertyOp34
 70
     1
102
RTVSPropertyOp35
 70
     1
102
RTVSPropertyOp36
 70
     1
102
RTVSPropertyOp37
 70
     1
102
RTVSPropertyOp38
 70
     1
102
RTVSPropertyOp39
 70
     1
102
RTVSPropertyOp40
 70
     1
102
RTVSPropertyOp41
 70
     1
102
RTVSPropertyOp42
 70
     1
102
RTVSPropertyOp43
 70
     1
102
RTVSPropertyOp44
 70
     1
102
RTVSPropertyOp45
 70
     1
102
RTVSPropertyOp46
 70
     1
102
RTVSPropertyOp47
 70
     1
102
RTVSPropertyOp48
 70
     1
102
RTVSPropertyOp49
 70
     1
102
RTVSPropertyOp50
 70
     1
102
RTVSPropertyOp51
 70
     0
102
RTVSPropertyOp52
 70
     0
102
RTVSPropertyOp53
 70
     1
102
RTVSPropertyOp54
 70
     1
102
RTVSPropertyOp55
 70
     1
102
RTVSPropertyOp56
 70
     1
102
RTVSPropertyOp57
 70
     1
102
RTVSPost2010Prop28
280
     0
102
RTVSPost2010PropOp28
 70
     1
102
RTVSPost2010Prop29
280
     1
102
RTVSPost2010PropOp29
 70
     1
102
RTVSPost2010Prop30
280
     1
102
RTVSPost2010PropOp30
 70
     1
102
RTVSPost2010Prop31
280
     0
102
RTVSPost2010PropOp31
 70
     1
102
RTVSPost2010Prop32
280
     0
102
RTVSPost2010PropOp32
 70
     1
102
RTVSPost2010Prop33
280
     0
102
RTVSPost2010PropOp33
 70
     1
102
RTVSPost2010Prop34
280
     0
102
RTVSPost2010PropOp34
 70
     1
102
RTVSPost2010Prop35
280
     0
102
RTVSPost2010PropOp35
 70
     1
102
RTVSPost2010Prop36
280
     0
102
RTVSPost2010PropOp36
 70
     1
102
RTVSPost2010Prop37
 90
       50
102
RTVSPost2010PropOp37
 70
     1
102
RTVSPost2010Prop38
140
0.0
102
RTVSPost2010PropOp38
 70
     1
102
RTVSPost2010Prop39
140
1.0
102
RTVSPost2010PropOp39
 70
     1
102
RTVSPost2010Prop40
 90
        0
102
RTVSPost2010PropOp40
 70
     1
102
RTVSPost2010Prop41ColorIndex
 90
       18
102
RTVSPost2010Prop41ColorRGB
 90
        0
102
RTVSPost2010PropOp41
 70
     1
102
RTVSPost2010Prop42
 90
       50
102
RTVSPost2010PropOp42
 70
     1
102
RTVSPost2010Prop43
 90
        3
102
RTVSPost2010PropOp43
 70
     1
102
RTVSPost2010Prop44ColorIndex
 90
        5
102
RTVSPost2010Prop44ColorRGB
 90
      255
102
RTVSPost2010PropOp44
 70
     1
102
RTVSPost2010Prop45
280
     0
102
RTVSPost2010PropOp45
 70
     1
102
RTVSPost2010Prop46
 90
       50
102
RTVSPost2010PropOp46
 70
     1
102
RTVSPost2010Prop47
 90
       50
102
RTVSPost2010PropOp47
 70
     1
102
RTVSPost2010Prop48
 90
       50
102
RTVSPost2010PropOp48
 70
     1
102
RTVSPost2010Prop49
280
     0
102
RTVSPost2010PropOp49
 70
     1
102
RTVSPost2010Prop50
 90
       50
102
RTVSPost2010PropOp50
 70
     1
102
RTVSPost2010Prop51ColorIndex
 90
      256
102
RTVSPost2010Prop51ColorRGB
 90
-16777216
102
RTVSPost2010PropOp51
 70
     0
102
RTVSPost2010Prop52
140
1.0
102
RTVSPost2010PropOp52
 70
     0
102
RTVSPost2010Prop53
 90
        2
102
RTVSPost2010PropOp53
 70
     1
102
RTVSPost2010Prop54
  1
strokes_ogs.tif
102
RTVSPost2010PropOp54
 70
     1
102
RTVSPost2010Prop55
280
     0
102
RTVSPost2010PropOp55
 70
     1
102
RTVSPost2010Prop56
140
1.0
102
RTVSPost2010PropOp56
 70
     1
102
RTVSPost2010Prop57
140
1.0
102
RTVSPost2010PropOp57
 70
     1
  0
XRECORD
  5
356
102
{ACAD_REACTORS
330
355
102
}
330
355
100
AcDbXrecord
280
     1
102
RTVSPropertyOp0
 70
     1
102
RTVSPropertyOp1
 70
     1
102
RTVSPropertyOp2
 70
     1
102
RTVSPropertyOp3
 70
     1
102
RTVSPropertyOp4
 70
     1
102
RTVSPropertyOp5
 70
     1
102
RTVSPropertyOp6
 70
     1
102
RTVSPropertyOp7
 70
     1
102
RTVSPropertyOp8
 70
     1
102
RTVSPropertyOp9
 70
     1
102
RTVSPropertyOp10
 70
     1
102
RTVSPropertyOp11
 70
     1
102
RTVSPropertyOp12
 70
     1
102
RTVSPropertyOp13
 70
     1
102
RTVSPropertyOp14
 70
     1
102
RTVSPropertyOp15
 70
     1
102
RTVSPropertyOp16
 70
     1
102
RTVSPropertyOp17
 70
     1
102
RTVSPropertyOp18
 70
     1
102
RTVSPropertyOp19
 70
     1
102
RTVSPropertyOp20
 70
     1
102
RTVSPropertyOp21
 70
     1
102
RTVSPropertyOp22
 70
     1
102
RTVSPropertyOp23
 70
     1
102
RTVSPropertyOp24
 70
     1
102
RTVSPropertyOp25
 70
     1
102
RTVSPropertyOp26
 70
     1
102
RTVSPropertyOp27
 70
     1
102
RTVSPropertyOp28
 70
     1
102
RTVSPropertyOp29
 70
     1
102
RTVSPropertyOp30
 70
     1
102
RTVSPropertyOp31
 70
     1
102
RTVSPropertyOp32
 70
     1
102
RTVSPropertyOp33
 70
     1
102
RTVSPropertyOp34
 70
     1
102
RTVSPropertyOp35
 70
     1
102
RTVSPropertyOp36
 70
     1
102
RTVSPropertyOp37
 70
     1
102
RTVSPropertyOp38
 70
     1
102
RTVSPropertyOp39
 70
     1
102
RTVSPropertyOp40
 70
     1
102
RTVSPropertyOp41
 70
     1
102
RTVSPropertyOp42
 70
     1
102
RTVSPropertyOp43
 70
     1
102
RTVSPropertyOp44
 70
     1
102
RTVSPropertyOp45
 70
     1
102
RTVSPropertyOp46
 70
     1
102
RTVSPropertyOp47
 70
     1
102
RTVSPropertyOp48
 70
     1
102
RTVSPropertyOp49
 70
     1
102
RTVSPropertyOp50
 70
     1
102
RTVSPropertyOp51
 70
     0
102
RTVSPropertyOp52
 70
     0
102
RTVSPropertyOp53
 70
     1
102
RTVSPropertyOp54
 70
     1
102
RTVSPropertyOp55
 70
     1
102
RTVSPropertyOp56
 70
     1
102
RTVSPropertyOp57
 70
     1
102
RTVSPost2010Prop28
280
     0
102
RTVSPost2010PropOp28
 70
     1
102
RTVSPost2010Prop29
280
     1
102
RTVSPost2010PropOp29
 70
     1
102
RTVSPost2010Prop30
280
     1
102
RTVSPost2010PropOp30
 70
     1
102
RTVSPost2010Prop31
280
     0
102
RTVSPost2010PropOp31
 70
     1
102
RTVSPost2010Prop32
280
     0
102
RTVSPost2010PropOp32
 70
     1
102
RTVSPost2010Prop33
280
     0
102
RTVSPost2010PropOp33
 70
     1
102
RTVSPost2010Prop34
280
     0
102
RTVSPost2010PropOp34
 70
     1
102
RTVSPost2010Prop35
280
     0
102
RTVSPost2010PropOp35
 70
     1
102
RTVSPost2010Prop36
280
     0
102
RTVSPost2010PropOp36
 70
     1
102
RTVSPost2010Prop37
 90
       50
102
RTVSPost2010PropOp37
 70
     1
102
RTVSPost2010Prop38
140
0.0
102
RTVSPost2010PropOp38
 70
     1
102
RTVSPost2010Prop39
140
1.0
102
RTVSPost2010PropOp39
 70
     1
102
RTVSPost2010Prop40
 90
        0
102
RTVSPost2010PropOp40
 70
     1
102
RTVSPost2010Prop41ColorIndex
 90
       18
102
RTVSPost2010Prop41ColorRGB
 90
        0
102
RTVSPost2010PropOp41
 70
     1
102
RTVSPost2010Prop42
 90
       50
102
RTVSPost2010PropOp42
 70
     1
102
RTVSPost2010Prop43
 90
        3
102
RTVSPost2010PropOp43
 70
     1
102
RTVSPost2010Prop44ColorIndex
 90
        5
102
RTVSPost2010Prop44ColorRGB
 90
      255
102
RTVSPost2010PropOp44
 70
     1
102
RTVSPost2010Prop45
280
     0
102
RTVSPost2010PropOp45
 70
     1
102
RTVSPost2010Prop46
 90
       50
102
RTVSPost2010PropOp46
 70
     1
102
RTVSPost2010Prop47
 90
       50
102
RTVSPost2010PropOp47
 70
     1
102
RTVSPost2010Prop48
 90
       50
102
RTVSPost2010PropOp48
 70
     1
102
RTVSPost2010Prop49
280
     0
102
RTVSPost2010PropOp49
 70
     1
102
RTVSPost2010Prop50
 90
       50
102
RTVSPost2010PropOp50
 70
     1
102
RTVSPost2010Prop51ColorIndex
 90
      256
102
RTVSPost2010Prop51ColorRGB
 90
-16777216
102
RTVSPost2010PropOp51
 70
     0
102
RTVSPost2010Prop52
140
1.0
102
RTVSPost2010PropOp52
 70
     0
102
RTVSPost2010Prop53
 90
        2
102
RTVSPost2010PropOp53
 70
     1
102
RTVSPost2010Prop54
  1
strokes_ogs.tif
102
RTVSPost2010PropOp54
 70
     1
102
RTVSPost2010Prop55
280
     0
102
RTVSPost2010PropOp55
 70
     1
102
RTVSPost2010Prop56
140
1.0
102
RTVSPost2010PropOp56
 70
     1
102
RTVSPost2010Prop57
140
1.0
102
RTVSPost2010PropOp57
 70
     1
  0
XRECORD
  5
358
102
{ACAD_REACTORS
330
357
102
}
330
357
100
AcDbXrecord
280
     1
102
RTVSPropertyOp0
 70
     1
102
RTVSPropertyOp1
 70
     1
102
RTVSPropertyOp2
 70
     1
102
RTVSPropertyOp3
 70
     1
102
RTVSPropertyOp4
 70
     1
102
RTVSPropertyOp5
 70
     1
102
RTVSPropertyOp6
 70
     1
102
RTVSPropertyOp7
 70
     1
102
RTVSPropertyOp8
 70
     1
102
RTVSPropertyOp9
 70
     1
102
RTVSPropertyOp10
 70
     1
102
RTVSPropertyOp11
 70
     1
102
RTVSPropertyOp12
 70
     1
102
RTVSPropertyOp13
 70
     1
102
RTVSPropertyOp14
 70
     1
102
RTVSPropertyOp15
 70
     1
102
RTVSPropertyOp16
 70
     1
102
RTVSPropertyOp17
 70
     1
102
RTVSPropertyOp18
 70
     1
102
RTVSPropertyOp19
 70
     1
102
RTVSPropertyOp20
 70
     1
102
RTVSPropertyOp21
 70
     1
102
RTVSPropertyOp22
 70
     1
102
RTVSPropertyOp23
 70
     1
102
RTVSPropertyOp24
 70
     1
102
RTVSPropertyOp25
 70
     1
102
RTVSPropertyOp26
 70
     1
102
RTVSPropertyOp27
 70
     1
102
RTVSPropertyOp28
 70
     1
102
RTVSPropertyOp29
 70
     1
102
RTVSPropertyOp30
 70
     1
102
RTVSPropertyOp31
 70
     1
102
RTVSPropertyOp32
 70
     1
102
RTVSPropertyOp33
 70
     1
102
RTVSPropertyOp34
 70
     1
102
RTVSPropertyOp35
 70
     1
102
RTVSPropertyOp36
 70
     1
102
RTVSPropertyOp37
 70
     1
102
RTVSPropertyOp38
 70
     1
102
RTVSPropertyOp39
 70
     1
102
RTVSPropertyOp40
 70
     1
102
RTVSPropertyOp41
 70
     1
102
RTVSPropertyOp42
 70
     1
102
RTVSPropertyOp43
 70
     1
102
RTVSPropertyOp44
 70
     1
102
RTVSPropertyOp45
 70
     1
102
RTVSPropertyOp46
 70
     1
102
RTVSPropertyOp47
 70
     1
102
RTVSPropertyOp48
 70
     1
102
RTVSPropertyOp49
 70
     1
102
RTVSPropertyOp50
 70
     1
102
RTVSPropertyOp51
 70
     0
102
RTVSPropertyOp52
 70
     0
102
RTVSPropertyOp53
 70
     1
102
RTVSPropertyOp54
 70
     1
102
RTVSPropertyOp55
 70
     1
102
RTVSPropertyOp56
 70
     1
102
RTVSPropertyOp57
 70
     1
102
RTVSPost2010Prop28
280
     0
102
RTVSPost2010PropOp28
 70
     1
102
RTVSPost2010Prop29
280
     1
102
RTVSPost2010PropOp29
 70
     1
102
RTVSPost2010Prop30
280
     1
102
RTVSPost2010PropOp30
 70
     1
102
RTVSPost2010Prop31
280
     0
102
RTVSPost2010PropOp31
 70
     1
102
RTVSPost2010Prop32
280
     0
102
RTVSPost2010PropOp32
 70
     1
102
RTVSPost2010Prop33
280
     0
102
RTVSPost2010PropOp33
 70
     1
102
RTVSPost2010Prop34
280
     0
102
RTVSPost2010PropOp34
 70
     1
102
RTVSPost2010Prop35
280
     0
102
RTVSPost2010PropOp35
 70
     1
102
RTVSPost2010Prop36
280
     0
102
RTVSPost2010PropOp36
 70
     1
102
RTVSPost2010Prop37
 90
       50
102
RTVSPost2010PropOp37
 70
     1
102
RTVSPost2010Prop38
140
0.0
102
RTVSPost2010PropOp38
 70
     1
102
RTVSPost2010Prop39
140
1.0
102
RTVSPost2010PropOp39
 70
     1
102
RTVSPost2010Prop40
 90
        0
102
RTVSPost2010PropOp40
 70
     1
102
RTVSPost2010Prop41ColorIndex
 90
       18
102
RTVSPost2010Prop41ColorRGB
 90
        0
102
RTVSPost2010PropOp41
 70
     1
102
RTVSPost2010Prop42
 90
       50
102
RTVSPost2010PropOp42
 70
     1
102
RTVSPost2010Prop43
 90
        3
102
RTVSPost2010PropOp43
 70
     1
102
RTVSPost2010Prop44ColorIndex
 90
        5
102
RTVSPost2010Prop44ColorRGB
 90
      255
102
RTVSPost2010PropOp44
 70
     1
102
RTVSPost2010Prop45
280
     0
102
RTVSPost2010PropOp45
 70
     1
102
RTVSPost2010Prop46
 90
       50
102
RTVSPost2010PropOp46
 70
     1
102
RTVSPost2010Prop47
 90
       50
102
RTVSPost2010PropOp47
 70
     1
102
RTVSPost2010Prop48
 90
       50
102
RTVSPost2010PropOp48
 70
     1
102
RTVSPost2010Prop49
280
     0
102
RTVSPost2010PropOp49
 70
     1
102
RTVSPost2010Prop50
 90
       50
102
RTVSPost2010PropOp50
 70
     1
102
RTVSPost2010Prop51ColorIndex
 90
      256
102
RTVSPost2010Prop51ColorRGB
 90
-16777216
102
RTVSPost2010PropOp51
 70
     0
102
RTVSPost2010Prop52
140
1.0
102
RTVSPost2010PropOp52
 70
     0
102
RTVSPost2010Prop53
 90
        2
102
RTVSPost2010PropOp53
 70
     1
102
RTVSPost2010Prop54
  1
strokes_ogs.tif
102
RTVSPost2010PropOp54
 70
     1
102
RTVSPost2010Prop55
280
     0
102
RTVSPost2010PropOp55
 70
     1
102
RTVSPost2010Prop56
140
1.0
102
RTVSPost2010PropOp56
 70
     1
102
RTVSPost2010Prop57
140
1.0
102
RTVSPost2010PropOp57
 70
     1
  0
XRECORD
  5
348
102
{ACAD_REACTORS
330
347
102
}
330
347
100
AcDbXrecord
280
     1
102
RTVSPropertyOp0
 70
     1
102
RTVSPropertyOp1
 70
     1
102
RTVSPropertyOp2
 70
     1
102
RTVSPropertyOp3
 70
     1
102
RTVSPropertyOp4
 70
     1
102
RTVSPropertyOp5
 70
     1
102
RTVSPropertyOp6
 70
     1
102
RTVSPropertyOp7
 70
     1
102
RTVSPropertyOp8
 70
     1
102
RTVSPropertyOp9
 70
     1
102
RTVSPropertyOp10
 70
     1
102
RTVSPropertyOp11
 70
     1
102
RTVSPropertyOp12
 70
     1
102
RTVSPropertyOp13
 70
     1
102
RTVSPropertyOp14
 70
     1
102
RTVSPropertyOp15
 70
     1
102
RTVSPropertyOp16
 70
     1
102
RTVSPropertyOp17
 70
     1
102
RTVSPropertyOp18
 70
     1
102
RTVSPropertyOp19
 70
     1
102
RTVSPropertyOp20
 70
     1
102
RTVSPropertyOp21
 70
     1
102
RTVSPropertyOp22
 70
     1
102
RTVSPropertyOp23
 70
     1
102
RTVSPropertyOp24
 70
     1
102
RTVSPropertyOp25
 70
     1
102
RTVSPropertyOp26
 70
     1
102
RTVSPropertyOp27
 70
     1
102
RTVSPropertyOp28
 70
     1
102
RTVSPropertyOp29
 70
     1
102
RTVSPropertyOp30
 70
     1
102
RTVSPropertyOp31
 70
     1
102
RTVSPropertyOp32
 70
     1
102
RTVSPropertyOp33
 70
     1
102
RTVSPropertyOp34
 70
     1
102
RTVSPropertyOp35
 70
     1
102
RTVSPropertyOp36
 70
     1
102
RTVSPropertyOp37
 70
     1
102
RTVSPropertyOp38
 70
     1
102
RTVSPropertyOp39
 70
     1
102
RTVSPropertyOp40
 70
     1
102
RTVSPropertyOp41
 70
     1
102
RTVSPropertyOp42
 70
     1
102
RTVSPropertyOp43
 70
     1
102
RTVSPropertyOp44
 70
     1
102
RTVSPropertyOp45
 70
     1
102
RTVSPropertyOp46
 70
     1
102
RTVSPropertyOp47
 70
     1
102
RTVSPropertyOp48
 70
     1
102
RTVSPropertyOp49
 70
     1
102
RTVSPropertyOp50
 70
     1
102
RTVSPropertyOp51
 70
     0
102
RTVSPropertyOp52
 70
     0
102
RTVSPropertyOp53
 70
     1
102
RTVSPropertyOp54
 70
     1
102
RTVSPropertyOp55
 70
     1
102
RTVSPropertyOp56
 70
     1
102
RTVSPropertyOp57
 70
     1
102
RTVSPost2010Prop28
280
     0
102
RTVSPost2010PropOp28
 70
     1
102
RTVSPost2010Prop29
280
     1
102
RTVSPost2010PropOp29
 70
     1
102
RTVSPost2010Prop30
280
     1
102
RTVSPost2010PropOp30
 70
     1
102
RTVSPost2010Prop31
280
     0
102
RTVSPost2010PropOp31
 70
     1
102
RTVSPost2010Prop32
280
     0
102
RTVSPost2010PropOp32
 70
     1
102
RTVSPost2010Prop33
280
     0
102
RTVSPost2010PropOp33
 70
     1
102
RTVSPost2010Prop34
280
     0
102
RTVSPost2010PropOp34
 70
     1
102
RTVSPost2010Prop35
280
     0
102
RTVSPost2010PropOp35
 70
     1
102
RTVSPost2010Prop36
280
     0
102
RTVSPost2010PropOp36
 70
     1
102
RTVSPost2010Prop37
 90
       50
102
RTVSPost2010PropOp37
 70
     1
102
RTVSPost2010Prop38
140
0.0
102
RTVSPost2010PropOp38
 70
     1
102
RTVSPost2010Prop39
140
1.0
102
RTVSPost2010PropOp39
 70
     1
102
RTVSPost2010Prop40
 90
        0
102
RTVSPost2010PropOp40
 70
     1
102
RTVSPost2010Prop41ColorIndex
 90
       18
102
RTVSPost2010Prop41ColorRGB
 90
        0
102
RTVSPost2010PropOp41
 70
     1
102
RTVSPost2010Prop42
 90
       50
102
RTVSPost2010PropOp42
 70
     1
102
RTVSPost2010Prop43
 90
        3
102
RTVSPost2010PropOp43
 70
     1
102
RTVSPost2010Prop44ColorIndex
 90
        5
102
RTVSPost2010Prop44ColorRGB
 90
      255
102
RTVSPost2010PropOp44
 70
     1
102
RTVSPost2010Prop45
280
     0
102
RTVSPost2010PropOp45
 70
     1
102
RTVSPost2010Prop46
 90
       50
102
RTVSPost2010PropOp46
 70
     1
102
RTVSPost2010Prop47
 90
       50
102
RTVSPost2010PropOp47
 70
     1
102
RTVSPost2010Prop48
 90
       50
102
RTVSPost2010PropOp48
 70
     1
102
RTVSPost2010Prop49
280
     0
102
RTVSPost2010PropOp49
 70
     1
102
RTVSPost2010Prop50
 90
       50
102
RTVSPost2010PropOp50
 70
     1
102
RTVSPost2010Prop51ColorIndex
 90
      256
102
RTVSPost2010Prop51ColorRGB
 90
-16777216
102
RTVSPost2010PropOp51
 70
     0
102
RTVSPost2010Prop52
140
1.0
102
RTVSPost2010PropOp52
 70
     0
102
RTVSPost2010Prop53
 90
        2
102
RTVSPost2010PropOp53
 70
     1
102
RTVSPost2010Prop54
  1
strokes_ogs.tif
102
RTVSPost2010PropOp54
 70
     1
102
RTVSPost2010Prop55
280
     0
102
RTVSPost2010PropOp55
 70
     1
102
RTVSPost2010Prop56
140
1.0
102
RTVSPost2010PropOp56
 70
     1
102
RTVSPost2010Prop57
140
1.0
102
RTVSPost2010PropOp57
 70
     1
  0
XRECORD
  5
33A
102
{ACAD_REACTORS
330
339
102
}
330
339
100
AcDbXrecord
280
     1
102
RTVSPropertyOp0
 70
     1
102
RTVSPropertyOp1
 70
     1
102
RTVSPropertyOp2
 70
     1
102
RTVSPropertyOp3
 70
     1
102
RTVSPropertyOp4
 70
     1
102
RTVSPropertyOp5
 70
     1
102
RTVSPropertyOp6
 70
     1
102
RTVSPropertyOp7
 70
     1
102
RTVSPropertyOp8
 70
     1
102
RTVSPropertyOp9
 70
     1
102
RTVSPropertyOp10
 70
     1
102
RTVSPropertyOp11
 70
     1
102
RTVSPropertyOp12
 70
     1
102
RTVSPropertyOp13
 70
     1
102
RTVSPropertyOp14
 70
     1
102
RTVSPropertyOp15
 70
     1
102
RTVSPropertyOp16
 70
     1
102
RTVSPropertyOp17
 70
     1
102
RTVSPropertyOp18
 70
     1
102
RTVSPropertyOp19
 70
     1
102
RTVSPropertyOp20
 70
     1
102
RTVSPropertyOp21
 70
     1
102
RTVSPropertyOp22
 70
     1
102
RTVSPropertyOp23
 70
     1
102
RTVSPropertyOp24
 70
     1
102
RTVSPropertyOp25
 70
     1
102
RTVSPropertyOp26
 70
     1
102
RTVSPropertyOp27
 70
     1
102
RTVSPropertyOp28
 70
     1
102
RTVSPropertyOp29
 70
     1
102
RTVSPropertyOp30
 70
     1
102
RTVSPropertyOp31
 70
     1
102
RTVSPropertyOp32
 70
     1
102
RTVSPropertyOp33
 70
     1
102
RTVSPropertyOp34
 70
     1
102
RTVSPropertyOp35
 70
     1
102
RTVSPropertyOp36
 70
     1
102
RTVSPropertyOp37
 70
     1
102
RTVSPropertyOp38
 70
     1
102
RTVSPropertyOp39
 70
     1
102
RTVSPropertyOp40
 70
     1
102
RTVSPropertyOp41
 70
     1
102
RTVSPropertyOp42
 70
     1
102
RTVSPropertyOp43
 70
     1
102
RTVSPropertyOp44
 70
     1
102
RTVSPropertyOp45
 70
     1
102
RTVSPropertyOp46
 70
     1
102
RTVSPropertyOp47
 70
     1
102
RTVSPropertyOp48
 70
     1
102
RTVSPropertyOp49
 70
     1
102
RTVSPropertyOp50
 70
     1
102
RTVSPropertyOp51
 70
     0
102
RTVSPropertyOp52
 70
     0
102
RTVSPropertyOp53
 70
     1
102
RTVSPropertyOp54
 70
     1
102
RTVSPropertyOp55
 70
     1
102
RTVSPropertyOp56
 70
     1
102
RTVSPropertyOp57
 70
     1
102
RTVSPost2010Prop28
280
     0
102
RTVSPost2010PropOp28
 70
     1
102
RTVSPost2010Prop29
280
     1
102
RTVSPost2010PropOp29
 70
     1
102
RTVSPost2010Prop30
280
     1
102
RTVSPost2010PropOp30
 70
     1
102
RTVSPost2010Prop31
280
     0
102
RTVSPost2010PropOp31
 70
     1
102
RTVSPost2010Prop32
280
     0
102
RTVSPost2010PropOp32
 70
     1
102
RTVSPost2010Prop33
280
     0
102
RTVSPost2010PropOp33
 70
     1
102
RTVSPost2010Prop34
280
     0
102
RTVSPost2010PropOp34
 70
     1
102
RTVSPost2010Prop35
280
     0
102
RTVSPost2010PropOp35
 70
     1
102
RTVSPost2010Prop36
280
     0
102
RTVSPost2010PropOp36
 70
     1
102
RTVSPost2010Prop37
 90
       50
102
RTVSPost2010PropOp37
 70
     1
102
RTVSPost2010Prop38
140
0.0
102
RTVSPost2010PropOp38
 70
     1
102
RTVSPost2010Prop39
140
1.0
102
RTVSPost2010PropOp39
 70
     1
102
RTVSPost2010Prop40
 90
        0
102
RTVSPost2010PropOp40
 70
     1
102
RTVSPost2010Prop41ColorIndex
 90
       18
102
RTVSPost2010Prop41ColorRGB
 90
        0
102
RTVSPost2010PropOp41
 70
     1
102
RTVSPost2010Prop42
 90
       50
102
RTVSPost2010PropOp42
 70
     1
102
RTVSPost2010Prop43
 90
        3
102
RTVSPost2010PropOp43
 70
     1
102
RTVSPost2010Prop44ColorIndex
 90
        5
102
RTVSPost2010Prop44ColorRGB
 90
      255
102
RTVSPost2010PropOp44
 70
     1
102
RTVSPost2010Prop45
280
     0
102
RTVSPost2010PropOp45
 70
     1
102
RTVSPost2010Prop46
 90
       50
102
RTVSPost2010PropOp46
 70
     1
102
RTVSPost2010Prop47
 90
       50
102
RTVSPost2010PropOp47
 70
     1
102
RTVSPost2010Prop48
 90
       50
102
RTVSPost2010PropOp48
 70
     1
102
RTVSPost2010Prop49
280
     0
102
RTVSPost2010PropOp49
 70
     1
102
RTVSPost2010Prop50
 90
       50
102
RTVSPost2010PropOp50
 70
     1
102
RTVSPost2010Prop51ColorIndex
 90
      256
102
RTVSPost2010Prop51ColorRGB
 90
-16777216
102
RTVSPost2010PropOp51
 70
     0
102
RTVSPost2010Prop52
140
1.0
102
RTVSPost2010PropOp52
 70
     0
102
RTVSPost2010Prop53
 90
        2
102
RTVSPost2010PropOp53
 70
     1
102
RTVSPost2010Prop54
  1
strokes_ogs.tif
102
RTVSPost2010PropOp54
 70
     1
102
RTVSPost2010Prop55
280
     0
102
RTVSPost2010PropOp55
 70
     1
102
RTVSPost2010Prop56
140
1.0
102
RTVSPost2010PropOp56
 70
     1
102
RTVSPost2010Prop57
140
1.0
102
RTVSPost2010PropOp57
 70
     1
  0
XRECORD
  5
35A
102
{ACAD_REACTORS
330
359
102
}
330
359
100
AcDbXrecord
280
     1
102
RTVSPropertyOp0
 70
     1
102
RTVSPropertyOp1
 70
     1
102
RTVSPropertyOp2
 70
     1
102
RTVSPropertyOp3
 70
     1
102
RTVSPropertyOp4
 70
     1
102
RTVSPropertyOp5
 70
     1
102
RTVSPropertyOp6
 70
     1
102
RTVSPropertyOp7
 70
     1
102
RTVSPropertyOp8
 70
     1
102
RTVSPropertyOp9
 70
     1
102
RTVSPropertyOp10
 70
     1
102
RTVSPropertyOp11
 70
     1
102
RTVSPropertyOp12
 70
     1
102
RTVSPropertyOp13
 70
     1
102
RTVSPropertyOp14
 70
     1
102
RTVSPropertyOp15
 70
     1
102
RTVSPropertyOp16
 70
     1
102
RTVSPropertyOp17
 70
     1
102
RTVSPropertyOp18
 70
     1
102
RTVSPropertyOp19
 70
     1
102
RTVSPropertyOp20
 70
     1
102
RTVSPropertyOp21
 70
     1
102
RTVSPropertyOp22
 70
     1
102
RTVSPropertyOp23
 70
     1
102
RTVSPropertyOp24
 70
     1
102
RTVSPropertyOp25
 70
     1
102
RTVSPropertyOp26
 70
     1
102
RTVSPropertyOp27
 70
     1
102
RTVSPropertyOp28
 70
     1
102
RTVSPropertyOp29
 70
     1
102
RTVSPropertyOp30
 70
     1
102
RTVSPropertyOp31
 70
     1
102
RTVSPropertyOp32
 70
     1
102
RTVSPropertyOp33
 70
     1
102
RTVSPropertyOp34
 70
     1
102
RTVSPropertyOp35
 70
     1
102
RTVSPropertyOp36
 70
     1
102
RTVSPropertyOp37
 70
     1
102
RTVSPropertyOp38
 70
     1
102
RTVSPropertyOp39
 70
     1
102
RTVSPropertyOp40
 70
     1
102
RTVSPropertyOp41
 70
     1
102
RTVSPropertyOp42
 70
     1
102
RTVSPropertyOp43
 70
     1
102
RTVSPropertyOp44
 70
     1
102
RTVSPropertyOp45
 70
     1
102
RTVSPropertyOp46
 70
     1
102
RTVSPropertyOp47
 70
     1
102
RTVSPropertyOp48
 70
     1
102
RTVSPropertyOp49
 70
     1
102
RTVSPropertyOp50
 70
     1
102
RTVSPropertyOp51
 70
     0
102
RTVSPropertyOp52
 70
     0
102
RTVSPropertyOp53
 70
     1
102
RTVSPropertyOp54
 70
     1
102
RTVSPropertyOp55
 70
     1
102
RTVSPropertyOp56
 70
     1
102
RTVSPropertyOp57
 70
     1
102
RTVSPost2010Prop28
280
     0
102
RTVSPost2010PropOp28
 70
     1
102
RTVSPost2010Prop29
280
     1
102
RTVSPost2010PropOp29
 70
     1
102
RTVSPost2010Prop30
280
     1
102
RTVSPost2010PropOp30
 70
     1
102
RTVSPost2010Prop31
280
     0
102
RTVSPost2010PropOp31
 70
     1
102
RTVSPost2010Prop32
280
     0
102
RTVSPost2010PropOp32
 70
     1
102
RTVSPost2010Prop33
280
     0
102
RTVSPost2010PropOp33
 70
     1
102
RTVSPost2010Prop34
280
     0
102
RTVSPost2010PropOp34
 70
     1
102
RTVSPost2010Prop35
280
     0
102
RTVSPost2010PropOp35
 70
     1
102
RTVSPost2010Prop36
280
     0
102
RTVSPost2010PropOp36
 70
     1
102
RTVSPost2010Prop37
 90
       50
102
RTVSPost2010PropOp37
 70
     1
102
RTVSPost2010Prop38
140
0.0
102
RTVSPost2010PropOp38
 70
     1
102
RTVSPost2010Prop39
140
1.0
102
RTVSPost2010PropOp39
 70
     1
102
RTVSPost2010Prop40
 90
        0
102
RTVSPost2010PropOp40
 70
     1
102
RTVSPost2010Prop41ColorIndex
 90
       18
102
RTVSPost2010Prop41ColorRGB
 90
        0
102
RTVSPost2010PropOp41
 70
     1
102
RTVSPost2010Prop42
 90
       50
102
RTVSPost2010PropOp42
 70
     1
102
RTVSPost2010Prop43
 90
        3
102
RTVSPost2010PropOp43
 70
     1
102
RTVSPost2010Prop44ColorIndex
 90
        5
102
RTVSPost2010Prop44ColorRGB
 90
      255
102
RTVSPost2010PropOp44
 70
     1
102
RTVSPost2010Prop45
280
     0
102
RTVSPost2010PropOp45
 70
     1
102
RTVSPost2010Prop46
 90
       50
102
RTVSPost2010PropOp46
 70
     1
102
RTVSPost2010Prop47
 90
       50
102
RTVSPost2010PropOp47
 70
     1
102
RTVSPost2010Prop48
 90
       50
102
RTVSPost2010PropOp48
 70
     1
102
RTVSPost2010Prop49
280
     0
102
RTVSPost2010PropOp49
 70
     1
102
RTVSPost2010Prop50
 90
       50
102
RTVSPost2010PropOp50
 70
     1
102
RTVSPost2010Prop51ColorIndex
 90
      256
102
RTVSPost2010Prop51ColorRGB
 90
-16777216
102
RTVSPost2010PropOp51
 70
     0
102
RTVSPost2010Prop52
140
1.0
102
RTVSPost2010PropOp52
 70
     0
102
RTVSPost2010Prop53
 90
        2
102
RTVSPost2010PropOp53
 70
     1
102
RTVSPost2010Prop54
  1
strokes_ogs.tif
102
RTVSPost2010PropOp54
 70
     1
102
RTVSPost2010Prop55
280
     0
102
RTVSPost2010PropOp55
 70
     1
102
RTVSPost2010Prop56
140
1.0
102
RTVSPost2010PropOp56
 70
     1
102
RTVSPost2010Prop57
140
1.0
102
RTVSPost2010PropOp57
 70
     1
  0
ENDSEC
  0
EOF
