  0
SECTION
  2
HEADER
  9
$ACADVER
  1
AC1018
  9
$ACADMAINTVER
 70
     0
  9
$DWGCODEPAGE
  3
ANSI_1252
  9
$INSBASE
 10
0.0
 20
0.0
 30
0.0
  9
$EXTMIN
 10
-27.04389595224276
 20
-27.04389595224277
 30
-59.0000000000001
  9
$EXTMAX
 10
27.04389595224278
 20
27.04389595224277
 30
308.0
  9
$LIMMIN
 10
0.0
 20
0.0
  9
$LIMMAX
 10
12.0
 20
9.0
  9
$ORTHOMODE
 70
     0
  9
$REGENMODE
 70
     1
  9
$FILLMODE
 70
     1
  9
$QTEXTMODE
 70
     0
  9
$MIRRTEXT
 70
     1
  9
$LTSCALE
 40
1.0
  9
$ATTMODE
 70
     1
  9
$TEXTSIZE
 40
0.2
  9
$TRACEWID
 40
0.05
  9
$TEXTSTYLE
  7
Standard
  9
$CLAYER
  8
Predefinito
  9
$CELTYPE
  6
ByLayer
  9
$CECOLOR
 62
   256
  9
$CELTSCALE
 40
1.0
  9
$DISPSILH
 70
     0
  9
$DIMSCALE
 40
1.0
  9
$DIMASZ
 40
0.18
  9
$DIMEXO
 40
0.0625
  9
$DIMDLI
 40
0.38
  9
$DIMRND
 40
0.0
  9
$DIMDLE
 40
0.0
  9
$DIMEXE
 40
0.18
  9
$DIMTP
 40
0.0
  9
$DIMTM
 40
0.0
  9
$DIMTXT
 40
0.18
  9
$DIMCEN
 40
0.09
  9
$DIMTSZ
 40
0.0
  9
$DIMTOL
 70
     0
  9
$DIMLIM
 70
     0
  9
$DIMTIH
 70
     1
  9
$DIMTOH
 70
     1
  9
$DIMSE1
 70
     0
  9
$DIMSE2
 70
     0
  9
$DIMTAD
 70
     0
  9
$DIMZIN
 70
     0
  9
$DIMBLK
  1

  9
$DIMASO
 70
     1
  9
$DIMSHO
 70
     1
  9
$DIMPOST
  1

  9
$DIMAPOST
  1

  9
$DIMALT
 70
     0
  9
$DIMALTD
 70
     2
  9
$DIMALTF
 40
25.4
  9
$DIMLFAC
 40
1.0
  9
$DIMTOFL
 70
     0
  9
$DIMTVP
 40
0.0
  9
$DIMTIX
 70
     0
  9
$DIMSOXD
 70
     0
  9
$DIMSAH
 70
     0
  9
$DIMBLK1
  1

  9
$DIMBLK2
  1

  9
$DIMSTYLE
  2
Standard
  9
$DIMCLRD
 70
     0
  9
$DIMCLRE
 70
     0
  9
$DIMCLRT
 70
     0
  9
$DIMTFAC
 40
1.0
  9
$DIMGAP
 40
0.09
  9
$DIMJUST
 70
     0
  9
$DIMSD1
 70
     0
  9
$DIMSD2
 70
     0
  9
$DIMTOLJ
 70
     1
  9
$DIMTZIN
 70
     0
  9
$DIMALTZ
 70
     0
  9
$DIMALTTZ
 70
     0
  9
$DIMUPT
 70
     0
  9
$DIMDEC
 70
     4
  9
$DIMTDEC
 70
     4
  9
$DIMALTU
 70
     2
  9
$DIMALTTD
 70
     2
  9
$DIMTXSTY
  7
Standard
  9
$DIMAUNIT
 70
     0
  9
$DIMADEC
 70
     0
  9
$DIMALTRND
 40
0.0
  9
$DIMAZIN
 70
     0
  9
$DIMDSEP
 70
    46
  9
$DIMATFIT
 70
     3
  9
$DIMFRAC
 70
     0
  9
$DIMLDRBLK
  1

  9
$DIMLUNIT
 70
     2
  9
$DIMLWD
 70
    -2
  9
$DIMLWE
 70
    -2
  9
$DIMTMOVE
 70
     2
  9
$LUNITS
 70
     2
  9
$LUPREC
 70
     3
  9
$SKETCHINC
 40
0.1
  9
$FILLETRAD
 40
0.5
  9
$AUNITS
 70
     0
  9
$AUPREC
 70
     0
  9
$MENU
  1
.
  9
$ELEVATION
 40
0.0
  9
$PELEVATION
 40
0.0
  9
$THICKNESS
 40
0.0
  9
$LIMCHECK
 70
     0
  9
$CHAMFERA
 40
0.0
  9
$CHAMFERB
 40
0.0
  9
$CHAMFERC
 40
0.0
  9
$CHAMFERD
 40
0.0
  9
$SKPOLY
 70
     0
  9
$TDCREATE
 40
2459027.671040452
  9
$TDUCREATE
 40
2459027.587707118
  9
$TDUPDATE
 40
2459027.671058426
  9
$TDUUPDATE
 40
2459027.587725093
  9
$TDINDWG
 40
0.0000000116
  9
$TDUSRTIMER
 40
0.0000000116
  9
$USRTIMER
 70
     1
  9
$ANGBASE
 50
0.0
  9
$ANGDIR
 70
     0
  9
$PDMODE
 70
     0
  9
$PDSIZE
 40
0.0
  9
$PLINEWID
 40
0.0
  9
$SPLFRAME
 70
     0
  9
$SPLINETYPE
 70
     6
  9
$SPLINESEGS
 70
     8
  9
$HANDSEED
  5
360
  9
$SURFTAB1
 70
     6
  9
$SURFTAB2
 70
     6
  9
$SURFTYPE
 70
     6
  9
$SURFU
 70
     6
  9
$SURFV
 70
     6
  9
$UCSBASE
  2

  9
$UCSNAME
  2

  9
$UCSORG
 10
0.0
 20
0.0
 30
0.0
  9
$UCSXDIR
 10
1.0
 20
0.0
 30
0.0
  9
$UCSYDIR
 10
0.0
 20
1.0
 30
0.0
  9
$UCSORTHOREF
  2

  9
$UCSORTHOVIEW
 70
     0
  9
$UCSORGTOP
 10
0.0
 20
0.0
 30
0.0
  9
$UCSORGBOTTOM
 10
0.0
 20
0.0
 30
0.0
  9
$UCSORGLEFT
 10
0.0
 20
0.0
 30
0.0
  9
$UCSORGRIGHT
 10
0.0
 20
0.0
 30
0.0
  9
$UCSORGFRONT
 10
0.0
 20
0.0
 30
0.0
  9
$UCSORGBACK
 10
0.0
 20
0.0
 30
0.0
  9
$PUCSBASE
  2

  9
$PUCSNAME
  2

  9
$PUCSORG
 10
0.0
 20
0.0
 30
0.0
  9
$PUCSXDIR
 10
1.0
 20
0.0
 30
0.0
  9
$PUCSYDIR
 10
0.0
 20
1.0
 30
0.0
  9
$PUCSORTHOREF
  2

  9
$PUCSORTHOVIEW
 70
     0
  9
$PUCSORGTOP
 10
0.0
 20
0.0
 30
0.0
  9
$PUCSORGBOTTOM
 10
0.0
 20
0.0
 30
0.0
  9
$PUCSORGLEFT
 10
0.0
 20
0.0
 30
0.0
  9
$PUCSORGRIGHT
 10
0.0
 20
0.0
 30
0.0
  9
$PUCSORGFRONT
 10
0.0
 20
0.0
 30
0.0
  9
$PUCSORGBACK
 10
0.0
 20
0.0
 30
0.0
  9
$USERI1
 70
     0
  9
$USERI2
 70
     0
  9
$USERI3
 70
     0
  9
$USERI4
 70
     0
  9
$USERI5
 70
     0
  9
$USERR1
 40
0.0
  9
$USERR2
 40
0.0
  9
$USERR3
 40
0.0
  9
$USERR4
 40
0.0
  9
$USERR5
 40
0.0
  9
$WORLDVIEW
 70
     1
  9
$SHADEDGE
 70
     3
  9
$SHADEDIF
 70
    70
  9
$TILEMODE
 70
     1
  9
$MAXACTVP
 70
    64
  9
$PINSBASE
 10
0.0
 20
0.0
 30
0.0
  9
$PLIMCHECK
 70
     0
  9
$PEXTMIN
 10
1.000000000000000E+20
 20
1.000000000000000E+20
 30
1.000000000000000E+20
  9
$PEXTMAX
 10
-1.000000000000000E+20
 20
-1.000000000000000E+20
 30
-1.000000000000000E+20
  9
$PLIMMIN
 10
0.0
 20
0.0
  9
$PLIMMAX
 10
12.0
 20
9.0
  9
$UNITMODE
 70
     0
  9
$VISRETAIN
 70
     1
  9
$PLINEGEN
 70
     0
  9
$PSLTSCALE
 70
     1
  9
$TREEDEPTH
 70
  3020
  9
$CMLSTYLE
  2
Standard
  9
$CMLJUST
 70
     0
  9
$CMLSCALE
 40
1.0
  9
$PROXYGRAPHICS
 70
     1
  9
$MEASUREMENT
 70
     0
  9
$CELWEIGHT
370
    -1
  9
$ENDCAPS
280
     0
  9
$JOINSTYLE
280
     0
  9
$LWDISPLAY
290
     0
  9
$INSUNITS
 70
     4
  9
$HYPERLINKBASE
  1

  9
$STYLESHEET
  1

  9
$XEDIT
290
     1
  9
$CEPSNTYPE
380
     0
  9
$PSTYLEMODE
290
     1
  9
$FINGERPRINTGUID
  2
{FBAC9196-DDBA-4ADF-AA0B-40E4DF39A1DB}
  9
$VERSIONGUID
  2
{FAEB1C32-E019-11D5-929B-00C0DF256EC4}
  9
$EXTNAMES
290
     1
  9
$PSVPSCALE
 40
0.0
  9
$OLESTARTUP
290
     0
  9
$SORTENTS
280
   127
  9
$INDEXCTL
280
     0
  9
$HIDETEXT
280
     1
  9
$XCLIPFRAME
290
     0
  9
$HALOGAP
280
     0
  9
$OBSCOLOR
 70
   257
  9
$OBSLTYPE
280
     0
  9
$INTERSECTIONDISPLAY
280
     0
  9
$INTERSECTIONCOLOR
 70
   257
  9
$DIMASSOC
280
     2
  9
$PROJECTNAME
  1

  0
ENDSEC
  0
SECTION
  2
CLASSES
  0
CLASS
  1
ACDBDICTIONARYWDFLT
  2
AcDbDictionaryWithDefault
  3
ObjectDBX Classes
 90
        0
 91
        4
280
     0
281
     0
  0
CLASS
  1
VISUALSTYLE
  2
AcDbVisualStyle
  3
ObjectDBX Classes
 90
     4095
 91
        4
280
     0
281
     0
  0
CLASS
  1
MATERIAL
  2
AcDbMaterial
  3
ObjectDBX Classes
 90
     1153
 91
        4
280
     0
281
     0
  0
CLASS
  1
SCALE
  2
AcDbScale
  3
ObjectDBX Classes
 90
     1153
 91
        4
280
     0
281
     0
  0
CLASS
  1
SUN
  2
AcDbSun
  3
SCENEOE
 90
     1153
 91
        4
280
     0
281
     0
  0
CLASS
  1
DICTIONARYVAR
  2
AcDbDictionaryVar
  3
ObjectDBX Classes
 90
        0
 91
        4
280
     0
281
     0
  0
ENDSEC
  0
SECTION
  2
TABLES
  0
TABLE
  2
VPORT
  5
8
330
0
100
AcDbSymbolTable
 70
     1
  0
VPORT
  5
29
330
8
100
AcDbSymbolTableRecord
100
AcDbViewportTableRecord
  2
*Active
 70
     0
 10
0.0
 20
0.0
 11
1.0
 21
1.0
 12
0.0
 22
0.0
 13
0.0
 23
0.0
 14
0.5
 24
0.5
 15
0.5
 25
0.5
 16
0.0
 26
0.0
 36
1.0
 17
0.0000000000000071
 27
0.0000000000000036
 37
0.0
 40
51.00000000000001
 41
1.0
 42
50.0
 43
0.0
 44
0.0
 50
0.0
 51
0.0
 71
     0
 72
   100
 73
     1
 74
     3
 75
     0
 76
     0
 77
     0
 78
     0
281
     0
 65
     1
110
0.0
120
0.0
130
0.0
111
1.0
121
0.0
131
0.0
112
0.0
122
1.0
132
0.0
 79
     0
146
0.0
  0
ENDTAB
  0
TABLE
  2
LTYPE
  5
5
330
0
100
AcDbSymbolTable
 70
     1
  0
LTYPE
  5
14
330
5
100
AcDbSymbolTableRecord
100
AcDbLinetypeTableRecord
  2
ByBlock
 70
     0
  3

 72
    65
 73
     0
 40
0.0
  0
LTYPE
  5
15
330
5
100
AcDbSymbolTableRecord
100
AcDbLinetypeTableRecord
  2
ByLayer
 70
     0
  3

 72
    65
 73
     0
 40
0.0
  0
LTYPE
  5
16
330
5
100
AcDbSymbolTableRecord
100
AcDbLinetypeTableRecord
  2
Continuous
 70
     0
  3
Solid line
 72
    65
 73
     0
 40
0.0
  0
ENDTAB
  0
TABLE
  2
LAYER
  5
2
330
0
100
AcDbSymbolTable
 70
     2
  0
LAYER
  5
10
330
2
100
AcDbSymbolTableRecord
100
AcDbLayerTableRecord
  2
0
 70
     0
 62
     7
  6
Continuous
370
    -3
390
F
  0
LAYER
  5
6A
330
2
100
AcDbSymbolTableRecord
100
AcDbLayerTableRecord
  2
Predefinito
 70
     0
 62
    18
420
        0
  6
Continuous
370
    -3
390
F
  0
ENDTAB
  0
TABLE
  2
STYLE
  5
3
330
0
100
AcDbSymbolTable
 70
     1
  0
STYLE
  5
11
330
3
100
AcDbSymbolTableRecord
100
AcDbTextStyleTableRecord
  2
Standard
 70
     0
 40
0.0
 41
1.0
 50
0.0
 71
     0
 42
0.2
  3
txt
  4

  0
ENDTAB
  0
TABLE
  2
VIEW
  5
6
330
0
100
AcDbSymbolTable
 70
     0
  0
ENDTAB
  0
TABLE
  2
UCS
  5
7
330
0
100
AcDbSymbolTable
 70
     0
  0
ENDTAB
  0
TABLE
  2
APPID
  5
9
330
0
100
AcDbSymbolTable
 70
     1
  0
APPID
  5
12
330
9
100
AcDbSymbolTableRecord
100
AcDbRegAppTableRecord
  2
ACAD
 70
     0
  0
ENDTAB
  0
TABLE
  2
DIMSTYLE
  5
A
330
0
100
AcDbSymbolTable
 70
     1
100
AcDbDimStyleTable
  0
DIMSTYLE
105
27
330
A
100
AcDbSymbolTableRecord
100
AcDbDimStyleTableRecord
  2
Standard
 70
     0
178
     0
340
11
  0
ENDTAB
  0
TABLE
  2
BLOCK_RECORD
  5
1
330
0
100
AcDbSymbolTable
 70
    12
  0
BLOCK_RECORD
  5
1F
330
1
100
AcDbSymbolTableRecord
100
AcDbBlockTableRecord
  2
*Model_Space
340
22
  0
BLOCK_RECORD
  5
1B
330
1
100
AcDbSymbolTableRecord
100
AcDbBlockTableRecord
  2
*Paper_Space
340
1E
  0
BLOCK_RECORD
  5
23
330
1
100
AcDbSymbolTableRecord
100
AcDbBlockTableRecord
  2
*Paper_Space0
340
26
  0
BLOCK_RECORD
  5
6B
330
1
100
AcDbSymbolTableRecord
100
AcDbBlockTableRecord
  2
3100PL02-00
340
0
102
{BLKREFS
331
322
102
}
  0
BLOCK_RECORD
  5
6C
330
1
100
AcDbSymbolTableRecord
100
AcDbBlockTableRecord
  2
10CN02960YY
340
0
102
{BLKREFS
331
BD
102
}
  0
BLOCK_RECORD
  5
BE
330
1
100
AcDbSymbolTableRecord
100
AcDbBlockTableRecord
  2
10PL03760YY
340
0
102
{BLKREFS
331
1E1
331
1E2
102
}
  0
BLOCK_RECORD
  5
1E3
330
1
100
AcDbSymbolTableRecord
100
AcDbBlockTableRecord
  2
2900KF11-00
340
0
102
{BLKREFS
331
2DD
102
}
  0
BLOCK_RECORD
  5
1E4
330
1
100
AcDbSymbolTableRecord
100
AcDbBlockTableRecord
  2
10CO10760YY
340
0
102
{BLKREFS
331
21A
102
}
  0
BLOCK_RECORD
  5
21B
330
1
100
AcDbSymbolTableRecord
100
AcDbBlockTableRecord
  2
10CD03360YY
340
0
102
{BLKREFS
331
24E
102
}
  0
BLOCK_RECORD
  5
24F
330
1
100
AcDbSymbolTableRecord
100
AcDbBlockTableRecord
  2
10RO07360YY
340
0
102
{BLKREFS
331
2B0
102
}
  0
BLOCK_RECORD
  5
2B1
330
1
100
AcDbSymbolTableRecord
100
AcDbBlockTableRecord
  2
10AN16260YY
340
0
102
{BLKREFS
331
2CE
102
}
  0
BLOCK_RECORD
  5
2CF
330
1
100
AcDbSymbolTableRecord
100
AcDbBlockTableRecord
  2
10OR15360YY
340
0
102
{BLKREFS
331
2DA
102
}
  0
BLOCK_RECORD
  5
2DE
330
1
100
AcDbSymbolTableRecord
100
AcDbBlockTableRecord
  2
10AS03260YY
340
0
102
{BLKREFS
331
2FA
102
}
  0
BLOCK_RECORD
  5
2FB
330
1
100
AcDbSymbolTableRecord
100
AcDbBlockTableRecord
  2
10NI02960YY
340
0
102
{BLKREFS
331
31F
102
}
  0
ENDTAB
  0
ENDSEC
  0
SECTION
  2
BLOCKS
  0
BLOCK
  5
20
330
1F
100
AcDbEntity
  8
0
100
AcDbBlockBegin
  2
*Model_Space
 70
     0
 10
0.0
 20
0.0
 30
0.0
  3
*Model_Space
  1
*Model_Space
  0
ENDBLK
  5
21
330
1F
100
AcDbEntity
  8
0
100
AcDbBlockEnd
  0
BLOCK
  5
1C
330
1B
100
AcDbEntity
 67
     1
  8
0
100
AcDbBlockBegin
  2
*Paper_Space
 70
     0
 10
0.0
 20
0.0
 30
0.0
  3
*Paper_Space
  1
*Paper_Space
  0
ENDBLK
  5
1D
330
1B
100
AcDbEntity
 67
     1
  8
0
100
AcDbBlockEnd
  0
BLOCK
  5
24
330
23
100
AcDbEntity
  8
0
100
AcDbBlockBegin
  2
*Paper_Space0
 70
     0
 10
0.0
 20
0.0
 30
0.0
  3
*Paper_Space0
  1
*Paper_Space0
  0
ENDBLK
  5
25
330
23
100
AcDbEntity
  8
0
100
AcDbBlockEnd
  0
BLOCK
  5
320
330
6B
100
AcDbEntity
  8
0
100
AcDbBlockBegin
  2
3100PL02-00
 70
     0
 10
0.0
 20
0.0
 30
0.0
  3
3100PL02-00
  1
3100PL02-00
  0
INSERT
  5
BD
330
6B
100
AcDbEntity
  8
Predefinito
100
AcDbBlockReference
  2
10CN02960YY
 10
0.0
 20
0.0
 30
0.0
  0
INSERT
  5
1E1
330
6B
100
AcDbEntity
  8
Predefinito
100
AcDbBlockReference
  2
10PL03760YY
 10
-7.0
 20
3.66189379676705
 30
-37.0
  0
INSERT
  5
1E2
330
6B
100
AcDbEntity
  8
Predefinito
100
AcDbBlockReference
  2
10PL03760YY
 10
7.0
 20
-3.98793837437234
 30
-37.0
  0
INSERT
  5
2DD
330
6B
100
AcDbEntity
  8
Predefinito
100
AcDbBlockReference
  2
2900KF11-00
 10
0.0
 20
0.0
 30
-63.093294886356
  0
INSERT
  5
2FA
330
6B
100
AcDbEntity
  8
Predefinito
100
AcDbBlockReference
  2
10AS03260YY
 10
0.0000000000000191
 20
0.0000000000000061
 30
0.0000000000000165
 50
270.0
  0
INSERT
  5
31F
330
6B
100
AcDbEntity
  8
Predefinito
100
AcDbBlockReference
  2
10NI02960YY
 10
0.0000000000002142
 20
-0.000000000000156
 30
293.0
 50
270.0
  0
ENDBLK
  5
321
330
6B
100
AcDbEntity
  8
0
100
AcDbBlockEnd
  0
BLOCK
  5
BB
330
6C
100
AcDbEntity
  8
0
100
AcDbBlockBegin
  2
10CN02960YY
 70
     0
 10
0.0
 20
0.0
 30
0.0
  3
10CN02960YY
  1
10CN02960YY
  0
ARC
  5
6D
330
6C
100
AcDbEntity
  8
Predefinito
 62
     9
420
 12566463
100
AcDbCircle
 10
0.0
 20
0.0
 30
160.0
 40
20.0
100
AcDbArc
 50
180.0
 51
0.0
  0
ARC
  5
6E
330
6C
100
AcDbEntity
  8
Predefinito
 62
     9
420
 12566463
100
AcDbCircle
 10
0.0
 20
0.0
 30
160.0
 40
20.0
100
AcDbArc
 50
0.000000000000007
 51
180.0
  0
ARC
  5
6F
330
6C
100
AcDbEntity
  8
Predefinito
 62
     9
420
 12566463
100
AcDbCircle
 10
0.0
 20
0.0
 30
0.0000000000000034
 40
20.0
100
AcDbArc
 50
0.0
 51
180.0
  0
ARC
  5
70
330
6C
100
AcDbEntity
  8
Predefinito
 62
     9
420
 12566463
100
AcDbCircle
 10
0.0
 20
0.0
 30
0.0000000000000034
 40
20.0
100
AcDbArc
 50
180.0
 51
0.0
  0
LINE
  5
71
330
6C
100
AcDbEntity
  8
Predefinito
 62
     9
420
 12566463
100
AcDbLine
 10
20.0
 20
-0.000000000000001
 30
0.0000000000000085
 11
20.0
 21
-0.000000000000001
 31
160.0
  0
ARC
  5
72
330
6C
100
AcDbEntity
  8
Predefinito
 62
     9
420
 12566463
100
AcDbCircle
 10
0.0
 20
0.0
 30
166.2499999999999
 40
18.0
100
AcDbArc
 50
0.000000000000007
 51
180.0
  0
ARC
  5
73
330
6C
100
AcDbEntity
  8
Predefinito
 62
     9
420
 12566463
100
AcDbCircle
 10
-0.0000000000000018
 20
0.0
 30
166.2499999999999
 40
18.0
100
AcDbArc
 50
180.0
 51
0.0
  0
ARC
  5
74
330
6C
100
AcDbEntity
  8
Predefinito
 62
     9
420
 12566463
100
AcDbCircle
 10
0.0
 20
0.0
 30
160.0
 40
18.0
100
AcDbArc
 50
0.0
 51
180.0
  0
ARC
  5
75
330
6C
100
AcDbEntity
  8
Predefinito
 62
     9
420
 12566463
100
AcDbCircle
 10
0.0
 20
0.0
 30
160.0
 40
18.0
100
AcDbArc
 50
180.0
 51
0.0
  0
LINE
  5
76
330
6C
100
AcDbEntity
  8
Predefinito
 62
     9
420
 12566463
100
AcDbLine
 10
18.0
 20
-0.0000000000000009
 30
160.0
 11
18.0
 21
0.0
 31
166.25
  0
ARC
  5
77
330
6C
100
AcDbEntity
  8
Predefinito
 62
     9
420
 12566463
100
AcDbCircle
 10
0.0
 20
0.0
 30
158.0
 40
15.25
100
AcDbArc
 50
180.0
 51
0.0
  0
ARC
  5
78
330
6C
100
AcDbEntity
  8
Predefinito
 62
     9
420
 12566463
100
AcDbCircle
 10
0.0
 20
0.0
 30
158.0
 40
15.25
100
AcDbArc
 50
0.0
 51
180.0
  0
ARC
  5
79
330
6C
100
AcDbEntity
  8
Predefinito
 62
     9
420
 12566463
100
AcDbCircle
 10
0.0
 20
0.0
 30
167.0
 40
15.25
100
AcDbArc
 50
0.0
 51
180.0
  0
ARC
  5
7A
330
6C
100
AcDbEntity
  8
Predefinito
 62
     9
420
 12566463
100
AcDbCircle
 10
0.0
 20
0.0
 30
167.0
 40
15.25
100
AcDbArc
 50
180.0
 51
0.0
  0
LINE
  5
7B
330
6C
100
AcDbEntity
  8
Predefinito
 62
     9
420
 12566463
100
AcDbLine
 10
15.25
 20
-0.0000000000000007
 30
158.0
 11
15.25
 21
-0.0000000000000007
 31
167.0
  0
ARC
  5
7C
330
6C
100
AcDbEntity
  8
Predefinito
 62
     9
420
 12566463
100
AcDbCircle
 10
0.0
 20
0.0
 30
12.0
 40
17.0
100
AcDbArc
 50
180.0
 51
0.0
  0
ARC
  5
7D
330
6C
100
AcDbEntity
  8
Predefinito
 62
     9
420
 12566463
100
AcDbCircle
 10
0.0
 20
0.0
 30
12.0
 40
17.0
100
AcDbArc
 50
0.0
 51
180.0
  0
ARC
  5
7E
330
6C
100
AcDbEntity
  8
Predefinito
 62
     9
420
 12566463
100
AcDbCircle
 10
0.0
 20
0.0
 30
158.0
 40
17.0
100
AcDbArc
 50
0.0
 51
180.0
  0
ARC
  5
7F
330
6C
100
AcDbEntity
  8
Predefinito
 62
     9
420
 12566463
100
AcDbCircle
 10
0.0
 20
0.0
 30
158.0
 40
17.0
100
AcDbArc
 50
180.0
 51
0.0
  0
LINE
  5
80
330
6C
100
AcDbEntity
  8
Predefinito
 62
     9
420
 12566463
100
AcDbLine
 10
17.0
 20
-0.0000000000000008
 30
12.0
 11
17.0
 21
-0.0000000000000008
 31
158.0
  0
ARC
  5
81
330
6C
100
AcDbEntity
  8
Predefinito
 62
     9
420
 12566463
100
AcDbCircle
 10
0.0
 20
0.0
 30
0.7499999999999987
 40
17.05
100
AcDbArc
 50
180.0
 51
0.0
  0
ARC
  5
82
330
6C
100
AcDbEntity
  8
Predefinito
 62
     9
420
 12566463
100
AcDbCircle
 10
0.0
 20
0.0
 30
0.7499999999999988
 40
17.05
100
AcDbArc
 50
0.0
 51
180.0
  0
ARC
  5
83
330
6C
100
AcDbEntity
  8
Predefinito
 62
     9
420
 12566463
100
AcDbCircle
 10
-0.0000000000000071
 20
0.0000000000000071
 30
12.0
 40
17.05000000000001
100
AcDbArc
 50
270.0
 51
0.0
  0
ARC
  5
84
330
6C
100
AcDbEntity
  8
Predefinito
 62
     9
420
 12566463
100
AcDbCircle
 10
0.0
 20
0.0
 30
12.0
 40
17.05
100
AcDbArc
 50
0.0000000000000035
 51
90.0
  0
LINE
  5
85
330
6C
100
AcDbEntity
  8
Predefinito
 62
     9
420
 12566463
100
AcDbLine
 10
17.05
 20
0.0
 30
0.749999999999999
 11
17.05
 21
0.0
 31
12.0
  0
ARC
  5
86
330
6C
100
AcDbEntity
  8
Predefinito
 62
     9
420
 12566463
100
AcDbCircle
 10
0.0000000000000036
 20
0.0
 30
12.0
 40
17.05
100
AcDbArc
 50
89.99999999999999
 51
270.0
  0
ARC
  5
87
330
6C
100
AcDbEntity
  8
Predefinito
 62
     9
420
 12566463
100
AcDbCircle
 10
-0.0000000000000018
 20
0.0
 30
-0.0000000000000007
 40
17.8
100
AcDbArc
 50
180.0
 51
0.0
  0
ARC
  5
88
330
6C
100
AcDbEntity
  8
Predefinito
 62
     9
420
 12566463
100
AcDbCircle
 10
0.0
 20
0.0
 30
-0.0000000000000007
 40
17.8
100
AcDbArc
 50
0.000000000000007
 51
180.0
  0
LINE
  5
89
330
6C
100
AcDbEntity
  8
Predefinito
 62
     9
420
 12566463
100
AcDbLine
 10
-17.05
 20
0.0
 30
0.7499999999999984
 11
-17.8
 21
0.0000000000000009
 31
-0.0000000000000003
  0
ARC
  5
8A
330
6C
100
AcDbEntity
  8
Predefinito
 62
     9
420
 12566463
100
AcDbCircle
 10
0.0
 20
0.0
 30
167.0
 40
17.25
100
AcDbArc
 50
0.000000000000007
 51
180.0
  0
ARC
  5
8B
330
6C
100
AcDbEntity
  8
Predefinito
 62
     9
420
 12566463
100
AcDbCircle
 10
0.0
 20
0.0
 30
167.0
 40
17.25
100
AcDbArc
 50
180.0
 51
0.0
  0
LINE
  5
8C
330
6C
100
AcDbEntity
  8
Predefinito
 62
     9
420
 12566463
100
AcDbLine
 10
-17.25
 20
-0.0000000000000008
 30
167.0
 11
-18.0
 21
0.0
 31
166.2499999999999
  0
LINE
  5
8D
330
6C
100
AcDbEntity
  8
Predefinito
 62
     9
420
 12566463
100
AcDbLine
 10
-20.0
 20
-0.0000000000000018
 30
0.0
 11
-17.8
 21
-0.0000000000000018
 31
0.0
  0
LINE
  5
8E
330
6C
100
AcDbEntity
  8
Predefinito
 62
     9
420
 12566463
100
AcDbLine
 10
17.79999999999999
 20
-0.0000000000000018
 30
0.0
 11
20.0
 21
-0.0000000000000018
 31
0.0
  0
LINE
  5
8F
330
6C
100
AcDbEntity
  8
Predefinito
 62
     9
420
 12566463
100
AcDbLine
 10
0.0
 20
-20.0
 30
0.0
 11
0.0
 21
-17.8
 31
0.0
  0
LINE
  5
90
330
6C
100
AcDbEntity
  8
Predefinito
 62
     9
420
 12566463
100
AcDbLine
 10
0.0
 20
17.8
 30
0.0
 11
0.0
 21
20.0
 31
0.0
  0
CIRCLE
  5
91
330
6C
100
AcDbEntity
  8
Predefinito
 62
     9
420
 12566463
100
AcDbCircle
 10
0.0
 20
0.0
 30
80.0
 40
20.0
  0
LINE
  5
92
330
6C
100
AcDbEntity
  8
Predefinito
 62
     9
420
 12566463
100
AcDbLine
 10
0.0
 20
20.0
 30
0.0000000000000124
 11
0.0
 21
20.0
 31
159.9999999999999
  0
LINE
  5
93
330
6C
100
AcDbEntity
  8
Predefinito
 62
     9
420
 12566463
100
AcDbLine
 10
-20.0
 20
0.0
 30
0.0000000000000018
 11
-20.0
 21
0.0
 31
159.9999999999999
  0
LINE
  5
94
330
6C
100
AcDbEntity
  8
Predefinito
 62
     9
420
 12566463
100
AcDbLine
 10
0.0
 20
-20.0
 30
0.0000000000000018
 11
0.0
 21
-20.0
 31
159.9999999999999
  0
LINE
  5
95
330
6C
100
AcDbEntity
  8
Predefinito
 62
     9
420
 12566463
100
AcDbLine
 10
20.0
 20
-0.0000000000000018
 30
160.0
 11
18.0
 21
-0.0000000000000018
 31
160.0
  0
LINE
  5
96
330
6C
100
AcDbEntity
  8
Predefinito
 62
     9
420
 12566463
100
AcDbLine
 10
-18.0
 20
-0.0000000000000018
 30
160.0
 11
-20.0
 21
-0.0000000000000018
 31
160.0
  0
LINE
  5
97
330
6C
100
AcDbEntity
  8
Predefinito
 62
     9
420
 12566463
100
AcDbLine
 10
0.0
 20
-20.0
 30
160.0
 11
0.0
 21
-18.0
 31
160.0
  0
LINE
  5
98
330
6C
100
AcDbEntity
  8
Predefinito
 62
     9
420
 12566463
100
AcDbLine
 10
0.0
 20
18.0
 30
160.0
 11
0.0
 21
20.0
 31
160.0
  0
CIRCLE
  5
99
330
6C
100
AcDbEntity
  8
Predefinito
 62
     9
420
 12566463
100
AcDbCircle
 10
0.0
 20
0.0
 30
163.125
 40
18.0
  0
LINE
  5
9A
330
6C
100
AcDbEntity
  8
Predefinito
 62
     9
420
 12566463
100
AcDbLine
 10
0.0
 20
18.0
 30
160.0
 11
0.0
 21
18.0
 31
166.25
  0
LINE
  5
9B
330
6C
100
AcDbEntity
  8
Predefinito
 62
     9
420
 12566463
100
AcDbLine
 10
-18.0
 20
0.0
 30
160.0
 11
-18.0
 21
0.0
 31
166.25
  0
LINE
  5
9C
330
6C
100
AcDbEntity
  8
Predefinito
 62
     9
420
 12566463
100
AcDbLine
 10
0.0
 20
-18.0
 30
160.0
 11
0.0
 21
-18.0
 31
166.25
  0
LINE
  5
9D
330
6C
100
AcDbEntity
  8
Predefinito
 62
     9
420
 12566463
100
AcDbLine
 10
17.25
 20
-0.0000000000000018
 30
167.0
 11
15.25
 21
-0.0000000000000018
 31
167.0
  0
LINE
  5
9E
330
6C
100
AcDbEntity
  8
Predefinito
 62
     9
420
 12566463
100
AcDbLine
 10
-15.25
 20
-0.0000000000000018
 30
167.0
 11
-17.25
 21
-0.0000000000000018
 31
167.0
  0
LINE
  5
9F
330
6C
100
AcDbEntity
  8
Predefinito
 62
     9
420
 12566463
100
AcDbLine
 10
0.0000000000000036
 20
-17.25
 30
167.0
 11
0.0000000000000036
 21
-15.25
 31
167.0
  0
LINE
  5
A0
330
6C
100
AcDbEntity
  8
Predefinito
 62
     9
420
 12566463
100
AcDbLine
 10
0.0000000000000036
 20
15.25
 30
167.0
 11
0.0000000000000036
 21
17.24999999999999
 31
167.0
  0
CIRCLE
  5
A1
330
6C
100
AcDbEntity
  8
Predefinito
 62
     9
420
 12566463
100
AcDbCircle
 10
0.0
 20
0.0
 30
162.5
 40
15.25
  0
LINE
  5
A2
330
6C
100
AcDbEntity
  8
Predefinito
 62
     9
420
 12566463
100
AcDbLine
 10
0.0
 20
15.25
 30
158.0
 11
0.0
 21
15.25
 31
167.0
  0
LINE
  5
A3
330
6C
100
AcDbEntity
  8
Predefinito
 62
     9
420
 12566463
100
AcDbLine
 10
-15.25
 20
0.0
 30
158.0
 11
-15.25
 21
0.0
 31
167.0
  0
LINE
  5
A4
330
6C
100
AcDbEntity
  8
Predefinito
 62
     9
420
 12566463
100
AcDbLine
 10
0.0
 20
-15.25
 30
158.0
 11
0.0
 21
-15.25
 31
167.0
  0
LINE
  5
A5
330
6C
100
AcDbEntity
  8
Predefinito
 62
     9
420
 12566463
100
AcDbLine
 10
-17.0
 20
-0.0000000000000018
 30
158.0
 11
-15.25
 21
-0.0000000000000018
 31
158.0
  0
LINE
  5
A6
330
6C
100
AcDbEntity
  8
Predefinito
 62
     9
420
 12566463
100
AcDbLine
 10
15.25
 20
-0.0000000000000018
 30
158.0
 11
17.0
 21
-0.0000000000000018
 31
158.0
  0
LINE
  5
A7
330
6C
100
AcDbEntity
  8
Predefinito
 62
     9
420
 12566463
100
AcDbLine
 10
-0.0000000000000036
 20
-17.0
 30
158.0
 11
-0.0000000000000036
 21
-15.25
 31
158.0
  0
LINE
  5
A8
330
6C
100
AcDbEntity
  8
Predefinito
 62
     9
420
 12566463
100
AcDbLine
 10
-0.0000000000000036
 20
15.25
 30
158.0
 11
-0.0000000000000036
 21
17.0
 31
158.0
  0
CIRCLE
  5
A9
330
6C
100
AcDbEntity
  8
Predefinito
 62
     9
420
 12566463
100
AcDbCircle
 10
0.0
 20
0.0
 30
85.0
 40
17.0
  0
LINE
  5
AA
330
6C
100
AcDbEntity
  8
Predefinito
 62
     9
420
 12566463
100
AcDbLine
 10
0.0
 20
17.0
 30
12.0
 11
0.0
 21
17.0
 31
158.0
  0
LINE
  5
AB
330
6C
100
AcDbEntity
  8
Predefinito
 62
     9
420
 12566463
100
AcDbLine
 10
-17.0
 20
0.0
 30
12.0
 11
-17.0
 21
0.0
 31
158.0
  0
LINE
  5
AC
330
6C
100
AcDbEntity
  8
Predefinito
 62
     9
420
 12566463
100
AcDbLine
 10
0.0
 20
-17.0
 30
12.0
 11
0.0
 21
-17.0
 31
158.0
  0
LINE
  5
AD
330
6C
100
AcDbEntity
  8
Predefinito
 62
     9
420
 12566463
100
AcDbLine
 10
-17.05
 20
-0.0000000000000018
 30
12.0
 11
-17.0
 21
-0.0000000000000018
 31
12.0
  0
LINE
  5
AE
330
6C
100
AcDbEntity
  8
Predefinito
 62
     9
420
 12566463
100
AcDbLine
 10
17.0
 20
-0.0000000000000018
 30
12.0
 11
17.05
 21
-0.0000000000000018
 31
12.0
  0
LINE
  5
AF
330
6C
100
AcDbEntity
  8
Predefinito
 62
     9
420
 12566463
100
AcDbLine
 10
-0.0000000000000018
 20
-17.05
 30
12.0
 11
-0.0000000000000018
 21
-17.0
 31
12.0
  0
LINE
  5
B0
330
6C
100
AcDbEntity
  8
Predefinito
 62
     9
420
 12566463
100
AcDbLine
 10
-0.0000000000000018
 20
17.0
 30
12.0
 11
-0.0000000000000018
 21
17.05
 31
12.0
  0
CIRCLE
  5
B1
330
6C
100
AcDbEntity
  8
Predefinito
 62
     9
420
 12566463
100
AcDbCircle
 10
0.0
 20
0.0
 30
6.375
 40
17.05
  0
LINE
  5
B2
330
6C
100
AcDbEntity
  8
Predefinito
 62
     9
420
 12566463
100
AcDbLine
 10
0.0
 20
17.05
 30
0.7500000000000001
 11
0.0
 21
17.05
 31
12.0
  0
LINE
  5
B3
330
6C
100
AcDbEntity
  8
Predefinito
 62
     9
420
 12566463
100
AcDbLine
 10
-17.05
 20
0.0
 30
0.7499999999999998
 11
-17.05
 21
0.0
 31
12.0
  0
LINE
  5
B4
330
6C
100
AcDbEntity
  8
Predefinito
 62
     9
420
 12566463
100
AcDbLine
 10
0.0
 20
-17.05
 30
0.7499999999999998
 11
0.0
 21
-17.05
 31
12.0
  0
LINE
  5
B5
330
6C
100
AcDbEntity
  8
Predefinito
 62
     9
420
 12566463
100
AcDbLine
 10
0.0
 20
17.05
 30
0.7499999999999969
 11
0.0
 21
17.8
 31
-0.000000000000002
  0
LINE
  5
B6
330
6C
100
AcDbEntity
  8
Predefinito
 62
     9
420
 12566463
100
AcDbLine
 10
17.05
 20
0.0
 30
0.7499999999999969
 11
17.8
 21
0.0
 31
-0.000000000000002
  0
LINE
  5
B7
330
6C
100
AcDbEntity
  8
Predefinito
 62
     9
420
 12566463
100
AcDbLine
 10
0.0
 20
-17.05
 30
0.7499999999999987
 11
0.0
 21
-17.8
 31
-0.000000000000002
  0
LINE
  5
B8
330
6C
100
AcDbEntity
  8
Predefinito
 62
     9
420
 12566463
100
AcDbLine
 10
0.0
 20
17.25
 30
167.0
 11
0.0
 21
18.0
 31
166.25
  0
LINE
  5
B9
330
6C
100
AcDbEntity
  8
Predefinito
 62
     9
420
 12566463
100
AcDbLine
 10
17.25
 20
0.0
 30
167.0
 11
18.0
 21
0.0
 31
166.25
  0
LINE
  5
BA
330
6C
100
AcDbEntity
  8
Predefinito
 62
     9
420
 12566463
100
AcDbLine
 10
0.0
 20
-17.25
 30
167.0
 11
0.0
 21
-18.0
 31
166.25
  0
ENDBLK
  5
BC
330
6C
100
AcDbEntity
  8
0
100
AcDbBlockEnd
  0
BLOCK
  5
1DF
330
BE
100
AcDbEntity
  8
0
100
AcDbBlockBegin
  2
10PL03760YY
 70
     0
 10
0.0
 20
0.0
 30
0.0
  3
10PL03760YY
  1
10PL03760YY
  0
ARC
  5
BF
330
BE
100
AcDbEntity
  8
Predefinito
 62
     9
420
 12566463
100
AcDbCircle
 10
0.0
 20
0.0
 30
-0.0000000000000004
 40
3.0
100
AcDbArc
 50
180.0
 51
0.0
  0
ARC
  5
C0
330
BE
100
AcDbEntity
  8
Predefinito
 62
     9
420
 12566463
100
AcDbCircle
 10
0.0
 20
0.0
 30
-0.0000000000000004
 40
3.0
100
AcDbArc
 50
0.0
 51
180.0
  0
ARC
  5
C1
330
BE
100
AcDbEntity
  8
Predefinito
 62
     9
420
 12566463
100
AcDbCircle
 10
0.0
 20
0.0
 30
212.5
 40
3.0
100
AcDbArc
 50
0.000000000000007
 51
180.0
  0
ARC
  5
C2
330
BE
100
AcDbEntity
  8
Predefinito
 62
     9
420
 12566463
100
AcDbCircle
 10
0.0
 20
0.0
 30
212.5
 40
3.0
100
AcDbArc
 50
180.0
 51
0.0
  0
LINE
  5
C3
330
BE
100
AcDbEntity
  8
Predefinito
 62
     9
420
 12566463
100
AcDbLine
 10
-3.0
 20
0.0000000000000001
 30
212.5
 11
-3.0
 21
-0.0000000000000001
 31
-0.0000000000000043
  0
ARC
  5
C4
330
BE
100
AcDbEntity
  8
Predefinito
 62
     9
420
 12566463
100
AcDbCircle
 10
0.0000000000000018
 20
0.0
 30
8.000000000000018
 40
3.999999999999999
100
AcDbArc
 50
180.0
 51
0.0
  0
ARC
  5
C5
330
BE
100
AcDbEntity
  8
Predefinito
 62
     9
420
 12566463
100
AcDbCircle
 10
0.0000000000000013
 20
0.0
 30
8.000000000000018
 40
3.999999999999999
100
AcDbArc
 50
0.0
 51
180.0
  0
ARC
  5
C6
330
BE
100
AcDbEntity
  8
Predefinito
 62
     9
420
 12566463
100
AcDbCircle
 10
0.0
 20
0.0
 30
212.5
 40
4.0
100
AcDbArc
 50
180.0
 51
0.0
  0
ARC
  5
C7
330
BE
100
AcDbEntity
  8
Predefinito
 62
     9
420
 12566463
100
AcDbCircle
 10
0.0
 20
0.0
 30
212.5
 40
4.0
100
AcDbArc
 50
0.000000000000007
 51
180.0
  0
LINE
  5
C8
330
BE
100
AcDbEntity
  8
Predefinito
 62
     9
420
 12566463
100
AcDbLine
 10
-4.0
 20
0.0000000000000002
 30
212.5
 11
-3.999999999999997
 21
0.0
 31
8.000000000000028
  0
LINE
  5
C9
330
BE
100
AcDbEntity
  8
Predefinito
 62
     9
420
 12566463
100
AcDbLine
 10
-6.581793068761742
 20
-0.6000000000000041
 30
-0.999999999999996
 11
-6.581793068761741
 21
0.6000000000000004
 31
-0.999999999999996
  0
LINE
  5
CA
330
BE
100
AcDbEntity
  8
Predefinito
 62
     9
420
 12566463
100
AcDbLine
 10
-2.499999999999999
 20
-6.00000000000001
 30
-0.9999999999999961
 11
-2.771281292110201
 21
-6.000000000000012
 31
-0.999999999999996
  0
LINE
  5
CB
330
BE
100
AcDbEntity
  8
Predefinito
 62
     9
420
 12566463
100
AcDbLine
 10
2.771281292110189
 20
-6.000000000000009
 30
-0.999999999999996
 11
2.500000000000001
 21
-6.00000000000001
 31
-0.9999999999999961
  0
LINE
  5
CC
330
BE
100
AcDbEntity
  8
Predefinito
 62
     9
420
 12566463
100
AcDbLine
 10
6.58179306876173
 20
0.5999999999999878
 30
-0.999999999999996
 11
6.581793068761728
 21
-0.6000000000000089
 31
-0.999999999999996
  0
LINE
  5
CD
330
BE
100
AcDbEntity
  8
Predefinito
 62
     9
420
 12566463
100
AcDbLine
 10
-2.771281292110209
 20
5.999999999999998
 30
-0.999999999999996
 11
-2.50000000000002
 21
6.0
 31
-0.9999999999999961
  0
LINE
  5
CE
330
BE
100
AcDbEntity
  8
Predefinito
 62
     9
420
 12566463
100
AcDbLine
 10
2.50000000000003
 20
6.0
 30
-0.9999999999999961
 11
2.771281292110201
 21
5.999999999999995
 31
-0.999999999999996
  0
ARC
  5
CF
330
BE
100
AcDbEntity
  8
Predefinito
 62
     9
420
 12566463
100
AcDbCircle
 10
0.0000000000000031
 20
0.0
 30
-1.0
 40
4.499999999999998
100
AcDbArc
 50
0.0
 51
180.0
  0
ARC
  5
D0
330
BE
100
AcDbEntity
  8
Predefinito
 62
     9
420
 12566463
100
AcDbCircle
 10
0.000000000000004
 20
0.0
 30
-1.0
 40
4.499999999999998
100
AcDbArc
 50
180.0
 51
0.0
  0
ARC
  5
D1
330
BE
100
AcDbEntity
  8
Predefinito
 62
     9
420
 12566463
100
AcDbCircle
 10
0.0000000000000018
 20
0.0
 30
-0.0000000000000008
 40
4.0
100
AcDbArc
 50
0.000000000000007
 51
180.0
  0
ARC
  5
D2
330
BE
100
AcDbEntity
  8
Predefinito
 62
     9
420
 12566463
100
AcDbCircle
 10
0.0000000000000016
 20
0.0
 30
-0.0000000000000008
 40
4.0
100
AcDbArc
 50
180.0
 51
0.0
  0
LINE
  5
D3
330
BE
100
AcDbEntity
  8
Predefinito
 62
     9
420
 12566463
100
AcDbLine
 10
-3.999999999999999
 20
-0.0000000000000002
 30
-0.0000000000000011
 11
-4.499999999999996
 21
-0.0000000000000002
 31
-1.0
  0
LINE
  5
D4
330
BE
100
AcDbEntity
  8
Predefinito
 62
     9
420
 12566463
100
AcDbLine
 10
-3.999999999999997
 20
0.0
 30
8.000000000000028
 11
-6.582104264824896
 21
0.0
 31
3.661797809890711
  0
ARC
  5
D5
330
BE
100
AcDbEntity
  8
Predefinito
 62
     9
420
 12566463
100
AcDbCircle
 10
0.0000000000000038
 20
0.0
 30
-10.5
 40
4.0
100
AcDbArc
 50
0.0
 51
180.0
  0
ARC
  5
D6
330
BE
100
AcDbEntity
  8
Predefinito
 62
     9
420
 12566463
100
AcDbCircle
 10
0.000000000000004
 20
0.0
 30
-10.5
 40
4.0
100
AcDbArc
 50
180.0
 51
0.0
  0
ARC
  5
D7
330
BE
100
AcDbEntity
  8
Predefinito
 62
     9
420
 12566463
100
AcDbCircle
 10
0.0000000000000031
 20
0.0
 30
-10.0
 40
3.5
100
AcDbArc
 50
180.0
 51
0.0
  0
ARC
  5
D8
330
BE
100
AcDbEntity
  8
Predefinito
 62
     9
420
 12566463
100
AcDbCircle
 10
0.0000000000000031
 20
0.0
 30
-10.0
 40
3.5
100
AcDbArc
 50
0.000000000000007
 51
180.0
  0
LINE
  5
D9
330
BE
100
AcDbEntity
  8
Predefinito
 62
     9
420
 12566463
100
AcDbLine
 10
-3.499999999999997
 20
-0.0000000000000002
 30
-10.0
 11
-3.999999999999996
 21
-0.0000000000000002
 31
-10.5
  0
ARC
  5
DA
330
BE
100
AcDbEntity
  8
Predefinito
 62
     9
420
 12566463
100
AcDbCircle
 10
0.0000000000000036
 20
0.0
 30
-16.0
 40
4.5
100
AcDbArc
 50
0.0
 51
180.0
  0
ARC
  5
DB
330
BE
100
AcDbEntity
  8
Predefinito
 62
     9
420
 12566463
100
AcDbCircle
 10
0.0000000000000036
 20
0.0
 30
-16.0
 40
4.5
100
AcDbArc
 50
180.0
 51
0.0
  0
ARC
  5
DC
330
BE
100
AcDbEntity
  8
Predefinito
 62
     9
420
 12566463
100
AcDbCircle
 10
0.0000000000000036
 20
0.0
 30
-10.5
 40
4.5
100
AcDbArc
 50
180.0
 51
0.0
  0
ARC
  5
DD
330
BE
100
AcDbEntity
  8
Predefinito
 62
     9
420
 12566463
100
AcDbCircle
 10
0.0000000000000036
 20
0.0
 30
-10.5
 40
4.5
100
AcDbArc
 50
0.000000000000007
 51
180.0
  0
LINE
  5
DE
330
BE
100
AcDbEntity
  8
Predefinito
 62
     9
420
 12566463
100
AcDbLine
 10
-4.499999999999996
 20
-0.0000000000000002
 30
-10.5
 11
-4.499999999999996
 21
-0.0000000000000002
 31
-16.0
  0
ARC
  5
DF
330
BE
100
AcDbEntity
  8
Predefinito
 62
     9
420
 12566463
100
AcDbCircle
 10
-0.0000000000000226
 20
0.000000000000015
 30
-0.9999999999999939
 40
6.499999999999977
100
AcDbArc
 50
127.3801350519595
 51
172.6198649480404
  0
ARC
  5
E0
330
BE
100
AcDbEntity
  8
Predefinito
 62
     9
420
 12566463
100
AcDbCircle
 10
-0.0000000000000888
 20
0.0000000000001865
 30
-0.999999999999976
 40
6.499999999999801
100
AcDbArc
 50
112.6198649480405
 51
127.3801350519599
  0
ARC
  5
E1
330
BE
100
AcDbEntity
  8
Predefinito
 62
     9
420
 12566463
100
AcDbCircle
 10
0.0000000000000047
 20
0.0000000000000007
 30
-0.9999999999999939
 40
6.500000000000009
100
AcDbArc
 50
67.38013505195937
 51
112.6198649480407
  0
ARC
  5
E2
330
BE
100
AcDbEntity
  8
Predefinito
 62
     9
420
 12566463
100
AcDbCircle
 10
0.0000000000000568
 20
0.0000000000001332
 30
-0.999999999999976
 40
6.499999999999867
100
AcDbArc
 50
52.61986494804039
 51
67.38013505195934
  0
ARC
  5
E3
330
BE
100
AcDbEntity
  8
Predefinito
 62
     9
420
 12566463
100
AcDbCircle
 10
0.0000000000000171
 20
0.0000000000000048
 30
-0.9999999999999939
 40
6.499999999999995
100
AcDbArc
 50
7.380135051959142
 51
52.61986494804081
  0
ARC
  5
E4
330
BE
100
AcDbEntity
  8
Predefinito
 62
     9
420
 12566463
100
AcDbCircle
 10
0.0000000000004761
 20
0.0000000000000084
 30
-0.999999999999976
 40
6.499999999999537
100
AcDbArc
 50
352.61986494804
 51
7.380135051959641
  0
ARC
  5
E5
330
BE
100
AcDbEntity
  8
Predefinito
 62
     9
420
 12566463
100
AcDbCircle
 10
0.0000000000000144
 20
-0.000000000000005
 30
-0.9999999999999939
 40
6.499999999999994
100
AcDbArc
 50
307.3801350519593
 51
352.6198649480406
  0
ARC
  5
E6
330
BE
100
AcDbEntity
  8
Predefinito
 62
     9
420
 12566463
100
AcDbCircle
 10
0.0000000000000284
 20
-0.0000000000000746
 30
-0.999999999999976
 40
6.499999999999929
100
AcDbArc
 50
292.6198649480403
 51
307.3801350519595
  0
ARC
  5
E7
330
BE
100
AcDbEntity
  8
Predefinito
 62
     9
420
 12566463
100
AcDbCircle
 10
0.0000000000000004
 20
0.0000000000000058
 30
-0.9999999999999939
 40
6.500000000000014
100
AcDbArc
 50
247.3801350519596
 51
292.6198649480403
  0
ARC
  5
E8
330
BE
100
AcDbEntity
  8
Predefinito
 62
     9
420
 12566463
100
AcDbCircle
 10
-0.0000000000001172
 20
-0.0000000000002398
 30
-0.999999999999976
 40
6.499999999999742
100
AcDbArc
 50
232.6198649480399
 51
247.3801350519597
  0
ARC
  5
E9
330
BE
100
AcDbEntity
  8
Predefinito
 62
     9
420
 12566463
100
AcDbCircle
 10
-0.0000000000000115
 20
-0.0000000000000067
 30
-0.9999999999999939
 40
6.499999999999991
100
AcDbArc
 50
187.3801350519598
 51
232.6198649480403
  0
ARC
  5
EA
330
BE
100
AcDbEntity
  8
Predefinito
 62
     9
420
 12566463
100
AcDbCircle
 10
0.0000000000001563
 20
0.0000000000000306
 30
-0.9999999999997415
 40
6.500000000000162
100
AcDbArc
 50
180.0000000000002
 51
187.3801350519599
  0
ARC
  5
EB
330
BE
100
AcDbEntity
  8
Predefinito
 62
     9
420
 12566463
100
AcDbCircle
 10
-0.0000000000001137
 20
-0.0000000000000222
 30
-0.9999999999997415
 40
6.499999999999893
100
AcDbArc
 50
172.6198649480399
 51
179.9999999999998
  0
ARC
  5
EC
330
BE
100
AcDbEntity
  8
Predefinito
 62
     9
420
 12566463
100
AcDbCircle
 10
0.0000000000000036
 20
0.0
 30
-16.0
 40
6.50000000000001
100
AcDbArc
 50
180.0
 51
0.0
  0
ARC
  5
ED
330
BE
100
AcDbEntity
  8
Predefinito
 62
     9
420
 12566463
100
AcDbCircle
 10
0.0000000000000036
 20
0.0
 30
-16.0
 40
6.50000000000001
100
AcDbArc
 50
0.000000000000007
 51
180.0
  0
LINE
  5
EE
330
BE
100
AcDbEntity
  8
Predefinito
 62
     9
420
 12566463
100
AcDbLine
 10
-6.500000000000006
 20
0.0
 30
-0.9999999999999947
 11
-6.500000000000006
 21
-0.0000000000000003
 31
-16.0
  0
ARC
  5
EF
330
BE
100
AcDbEntity
  8
Predefinito
 62
     9
420
 12566463
100
AcDbCircle
 10
0.0000000000000002
 20
-0.0000000000000002
 30
-0.9999999999999956
 40
3.4585
100
AcDbArc
 50
270.0
 51
0.0
  0
ARC
  5
F0
330
BE
100
AcDbEntity
  8
Predefinito
 62
     9
420
 12566463
100
AcDbCircle
 10
-0.0000000000000011
 20
-0.0000000000000011
 30
-0.9999999999999956
 40
3.458500000000001
100
AcDbArc
 50
0.0000000000000199
 51
90.00000000000001
  0
ARC
  5
F1
330
BE
100
AcDbEntity
  8
Predefinito
 62
     9
420
 12566463
100
AcDbCircle
 10
-0.0000000000000011
 20
-0.0000000000000011
 30
-10.0
 40
3.458500000000001
100
AcDbArc
 50
0.0000000000000221
 51
89.99999999999999
  0
ARC
  5
F2
330
BE
100
AcDbEntity
  8
Predefinito
 62
     9
420
 12566463
100
AcDbCircle
 10
-0.0000000000000004
 20
0.0
 30
-10.0
 40
3.4585
100
AcDbArc
 50
90.00000000000001
 51
270.0
  0
LINE
  5
F3
330
BE
100
AcDbEntity
  8
Predefinito
 62
     9
420
 12566463
100
AcDbLine
 10
3.4585
 20
0.0
 30
-10.0
 11
3.4585
 21
0.0
 31
-0.9999999999999961
  0
ARC
  5
F4
330
BE
100
AcDbEntity
  8
Predefinito
 62
     9
420
 12566463
100
AcDbCircle
 10
-0.0000000000000004
 20
0.0
 30
-1.0
 40
3.4585
100
AcDbArc
 50
90.00000000000001
 51
270.0
  0
ARC
  5
F5
330
BE
100
AcDbEntity
  8
Predefinito
 62
     9
420
 12566463
100
AcDbCircle
 10
-0.0000000000000002
 20
0.0000000000000002
 30
-10.0
 40
3.4585
100
AcDbArc
 50
270.0
 51
0.0000000000000022
  0
SPLINE
  5
F6
330
BE
100
AcDbEntity
  8
Predefinito
 62
     9
420
 12566463
100
AcDbSpline
210
0.866025403784438
220
-0.500000000000001
230
-1.411311146288935E-16
 70
     8
 71
     3
 72
    11
 73
     7
 74
     0
 42
0.000000001
 43
0.0000000001
 40
-0.0000790795652766
 40
-0.0000790795652766
 40
-0.0000790795652766
 40
-0.0000790795652766
 40
0.0014124649142336
 40
0.0029040093937437
 40
0.0043955538732538
 40
0.0058870983527639
 40
0.0058870983527639
 40
0.0058870983527639
 40
0.0058870983527639
 10
-3.810511776651531
 20
5.4
 30
3.616467961323011
 10
-4.01545260176229
 20
5.04503207836308
 30
3.90522580197641
 10
-4.445368739722199
 20
4.300395484422729
 30
4.41343070054802
 10
-5.193478942540938
 20
3.004630603480019
 30
4.751914889191
 10
-5.942981751402939
 20
1.706453658115451
 30
4.417648749191461
 10
-6.376288424144724
 20
0.9559444856680598
 30
3.906020213256133
 10
-6.581793068761742
 20
0.6000000000000006
 30
3.616467961322991
  0
LINE
  5
F7
330
BE
100
AcDbEntity
  8
Predefinito
 62
     9
420
 12566463
100
AcDbLine
 10
-3.810511776651531
 20
5.4
 30
3.616467961323011
 11
-3.810511776651538
 21
5.399999999999999
 31
-0.999999999999996
  0
LINE
  5
F8
330
BE
100
AcDbEntity
  8
Predefinito
 62
     9
420
 12566463
100
AcDbLine
 10
-3.946152422706632
 20
5.165063509461102
 30
-0.9999999999999961
 11
-3.810511776651538
 21
5.399999999999999
 31
-0.999999999999996
  0
LINE
  5
F9
330
BE
100
AcDbEntity
  8
Predefinito
 62
     9
420
 12566463
100
AcDbLine
 10
-3.946152422706632
 20
5.165063509461102
 30
-0.9999999999999961
 11
-6.446152422706632
 21
0.8349364905389212
 31
-0.9999999999999961
  0
LINE
  5
FA
330
BE
100
AcDbEntity
  8
Predefinito
 62
     9
420
 12566463
100
AcDbLine
 10
-6.581793068761741
 20
0.6000000000000004
 30
-0.999999999999996
 11
-6.446152422706632
 21
0.8349364905389212
 31
-0.9999999999999961
  0
LINE
  5
FB
330
BE
100
AcDbEntity
  8
Predefinito
 62
     9
420
 12566463
100
AcDbLine
 10
-6.581793068761741
 20
0.6000000000000004
 30
-0.999999999999996
 11
-6.581793068761742
 21
0.6000000000000006
 31
3.616467961322991
  0
SPLINE
  5
FC
330
BE
100
AcDbEntity
  8
Predefinito
 62
     9
420
 12566463
100
AcDbSpline
210
0.866025403784438
220
0.5000000000000009
230
0.0
 70
     8
 71
     3
 72
    11
 73
     7
 74
     0
 42
0.000000001
 43
0.0000000001
 40
-0.0000790795652787
 40
-0.0000790795652787
 40
-0.0000790795652787
 40
-0.0000790795652787
 40
0.0014124649142314
 40
0.0029040093937415
 40
0.0043955538732517
 40
0.0058870983527618
 40
0.0058870983527618
 40
0.0058870983527618
 40
0.0058870983527618
 10
-6.581793068761745
 20
-0.6000000000000042
 30
3.616467961322992
 10
-6.376852243650998
 20
-0.9549679216369042
 30
3.905225801976381
 10
-5.946936105691062
 20
-1.699604515577302
 30
4.41343070054802
 10
-5.198825902872341
 20
-2.995369396519982
 30
4.751914889190991
 10
-4.449323094010328
 20
-4.293546341884569
 30
4.41764874919145
 10
-4.016016421268549
 20
-5.044055514331951
 30
3.90602021325614
 10
-3.81051177665153
 20
-5.400000000000013
 30
3.616467961323
  0
LINE
  5
FD
330
BE
100
AcDbEntity
  8
Predefinito
 62
     9
420
 12566463
100
AcDbLine
 10
-6.446152422706632
 20
-0.8349364905389298
 30
-0.9999999999999961
 11
-6.581793068761742
 21
-0.6000000000000041
 31
-0.999999999999996
  0
LINE
  5
FE
330
BE
100
AcDbEntity
  8
Predefinito
 62
     9
420
 12566463
100
AcDbLine
 10
-6.446152422706632
 20
-0.8349364905389298
 30
-0.9999999999999961
 11
-3.946152422706643
 21
-5.165063509461093
 31
-0.9999999999999961
  0
LINE
  5
FF
330
BE
100
AcDbEntity
  8
Predefinito
 62
     9
420
 12566463
100
AcDbLine
 10
-3.810511776651532
 20
-5.400000000000013
 30
-0.999999999999996
 11
-3.946152422706643
 21
-5.165063509461093
 31
-0.9999999999999961
  0
SPLINE
  5
100
330
BE
100
AcDbEntity
  8
Predefinito
 62
     9
420
 12566463
100
AcDbSpline
210
-3.204937810639294E-16
220
-1.0
230
7.821426504487423E-16
 70
     8
 71
     3
 72
    11
 73
     7
 74
     0
 42
0.000000001
 43
0.0000000001
 40
0.0021991031688478
 40
0.0021991031688478
 40
0.0021991031688478
 40
0.0021991031688478
 40
0.0036873720699148
 40
0.0051756409709818
 40
0.0066639098720488
 40
0.0081521787731157
 40
0.0081521787731157
 40
0.0081521787731157
 40
0.0081521787731157
 10
-2.771281292110209
 20
-6.000000000000009
 30
3.616467961323
 10
-2.365136151092639
 20
-6.000000000000009
 30
3.90259346571854
 10
-1.495151980641669
 20
-6.000000000000009
 30
4.41705818605727
 10
-0.0021027322341701
 20
-6.000000000000009
 30
4.75117722003258
 10
1.496331535509891
 20
-6.000000000000011
 30
4.416990748021651
 10
2.36455566753765
 20
-6.000000000000011
 30
3.903002411026971
 10
2.77128129211019
 20
-6.000000000000011
 30
3.616467961323011
  0
LINE
  5
101
330
BE
100
AcDbEntity
  8
Predefinito
 62
     9
420
 12566463
100
AcDbLine
 10
-2.771281292110209
 20
-6.000000000000009
 30
3.616467961323
 11
-2.771281292110201
 21
-6.000000000000012
 31
-0.999999999999996
  0
LINE
  5
102
330
BE
100
AcDbEntity
  8
Predefinito
 62
     9
420
 12566463
100
AcDbLine
 10
-2.499999999999999
 20
-6.00000000000001
 30
-0.9999999999999961
 11
2.500000000000001
 21
-6.00000000000001
 31
-0.9999999999999961
  0
SPLINE
  5
103
330
BE
100
AcDbEntity
  8
Predefinito
 62
     9
420
 12566463
100
AcDbSpline
210
0.866025403784438
220
-0.5000000000000009
230
4.233933438866782E-16
 70
     8
 71
     3
 72
    11
 73
     7
 74
     0
 42
0.000000001
 43
0.0000000001
 40
-0.0000790795652766
 40
-0.0000790795652766
 40
-0.0000790795652766
 40
-0.0000790795652766
 40
0.0014124649142336
 40
0.0029040093937437
 40
0.0043955538732538
 40
0.0058870983527639
 40
0.0058870983527639
 40
0.0058870983527639
 40
0.0058870983527639
 10
3.810511776651519
 20
-5.40000000000001
 30
3.616467961323011
 10
4.015452601762271
 20
-5.045032078363101
 30
3.905225801976411
 10
4.44536873972218
 20
-4.300395484422748
 30
4.41343070054802
 10
5.193478942540919
 20
-3.004630603480038
 30
4.751914889191021
 10
5.942981751402921
 20
-1.706453658115469
 30
4.41764874919148
 10
6.37628842414471
 20
-0.955944485668071
 30
3.906020213256161
 10
6.58179306876173
 20
-0.6000000000000086
 30
3.61646796132302
  0
LINE
  5
104
330
BE
100
AcDbEntity
  8
Predefinito
 62
     9
420
 12566463
100
AcDbLine
 10
3.94615242270661
 20
-5.165063509461121
 30
-0.9999999999999961
 11
3.810511776651528
 21
-5.399999999999999
 31
-0.999999999999996
  0
LINE
  5
105
330
BE
100
AcDbEntity
  8
Predefinito
 62
     9
420
 12566463
100
AcDbLine
 10
3.94615242270661
 20
-5.165063509461121
 30
-0.9999999999999961
 11
6.446152422706643
 21
-0.8349364905388844
 31
-0.9999999999999961
  0
LINE
  5
106
330
BE
100
AcDbEntity
  8
Predefinito
 62
     9
420
 12566463
100
AcDbLine
 10
6.581793068761728
 20
-0.6000000000000089
 30
-0.999999999999996
 11
6.446152422706643
 21
-0.8349364905388844
 31
-0.9999999999999961
  0
SPLINE
  5
107
330
BE
100
AcDbEntity
  8
Predefinito
 62
     9
420
 12566463
100
AcDbSpline
210
0.866025403784439
220
0.4999999999999992
230
-2.822622292577866E-16
 70
     8
 71
     3
 72
    11
 73
     7
 74
     0
 42
0.000000001
 43
0.0000000001
 40
-0.0000790795652787
 40
-0.0000790795652787
 40
-0.0000790795652787
 40
-0.0000790795652787
 40
0.0014124649142315
 40
0.0029040093937416
 40
0.0043955538732517
 40
0.0058870983527618
 40
0.0058870983527618
 40
0.0058870983527618
 40
0.0058870983527618
 10
6.581793068761731
 20
0.5999999999999899
 30
3.616467961323021
 10
6.376852243650982
 20
0.9549679216368955
 30
3.905225801976411
 10
5.94693610569105
 20
1.69960451557729
 30
4.413430700548051
 10
5.198825902872332
 20
2.99536939651997
 30
4.751914889191021
 10
4.449323094010322
 20
4.29354634188456
 30
4.41764874919147
 10
4.016016421268549
 20
5.04405551433193
 30
3.90602021325616
 10
3.810511776651528
 20
5.399999999999999
 30
3.61646796132302
  0
LINE
  5
108
330
BE
100
AcDbEntity
  8
Predefinito
 62
     9
420
 12566463
100
AcDbLine
 10
6.446152422706649
 20
0.8349364905388598
 30
-0.9999999999999961
 11
6.58179306876173
 21
0.5999999999999878
 31
-0.999999999999996
  0
LINE
  5
109
330
BE
100
AcDbEntity
  8
Predefinito
 62
     9
420
 12566463
100
AcDbLine
 10
6.446152422706649
 20
0.8349364905388598
 30
-0.9999999999999961
 11
3.946152422706611
 21
5.165063509461122
 31
-0.9999999999999961
  0
LINE
  5
10A
330
BE
100
AcDbEntity
  8
Predefinito
 62
     9
420
 12566463
100
AcDbLine
 10
3.810511776651528
 20
5.399999999999999
 30
-0.999999999999996
 11
3.946152422706611
 21
5.165063509461122
 31
-0.9999999999999961
  0
SPLINE
  5
10B
330
BE
100
AcDbEntity
  8
Predefinito
 62
     9
420
 12566463
100
AcDbSpline
210
4.807406715958909E-16
220
-1.0
230
-3.891370521298293E-16
 70
     8
 71
     3
 72
    11
 73
     7
 74
     0
 42
0.000000001
 43
0.0000000001
 40
0.006281803693616
 40
0.006281803693616
 40
0.006281803693616
 40
0.006281803693616
 40
0.0077650126664681
 40
0.0092482216393201
 40
0.0107314306121722
 40
0.0122146395850243
 40
0.0122146395850243
 40
0.0122146395850243
 40
0.0122146395850243
 10
2.7712812921102
 20
6.0
 30
3.61646796132302
 10
2.36051087204526
 20
6.0
 30
3.90585193213055
 10
1.49281550780352
 20
5.999999999999999
 30
4.41803641437135
 10
-0.0048797324438772
 20
5.999999999999998
 30
4.751654964411089
 10
-1.500140867013779
 20
5.999999999999998
 30
4.41408594703115
 10
-2.361083732588249
 20
5.999999999999997
 30
3.905448357163729
 10
-2.771281292110209
 20
5.999999999999997
 30
3.616467961323019
  0
LINE
  5
10C
330
BE
100
AcDbEntity
  8
Predefinito
 62
     9
420
 12566463
100
AcDbLine
 10
2.7712812921102
 20
6.0
 30
3.61646796132302
 11
2.771281292110201
 21
5.999999999999995
 31
-0.999999999999996
  0
LINE
  5
10D
330
BE
100
AcDbEntity
  8
Predefinito
 62
     9
420
 12566463
100
AcDbLine
 10
2.50000000000003
 20
6.0
 30
-0.9999999999999961
 11
-2.50000000000002
 21
6.0
 31
-0.9999999999999961
  0
ARC
  5
10E
330
BE
100
AcDbEntity
  8
Predefinito
 62
     9
420
 12566463
100
AcDbCircle
 10
0.0000000000000004
 20
0.0
 30
223.0
 40
5.49999999999998
100
AcDbArc
 50
180.0
 51
0.0
  0
ARC
  5
10F
330
BE
100
AcDbEntity
  8
Predefinito
 62
     9
420
 12566463
100
AcDbCircle
 10
0.0000000000000004
 20
0.0
 30
223.0
 40
5.49999999999998
100
AcDbArc
 50
0.000000000000007
 51
180.0
  0
ARC
  5
110
330
BE
100
AcDbEntity
  8
Predefinito
 62
     9
420
 12566463
100
AcDbCircle
 10
0.0000000000000004
 20
0.0
 30
212.5
 40
5.49999999999998
100
AcDbArc
 50
0.0
 51
180.0
  0
ARC
  5
111
330
BE
100
AcDbEntity
  8
Predefinito
 62
     9
420
 12566463
100
AcDbCircle
 10
0.0000000000000004
 20
0.0
 30
212.5
 40
5.49999999999998
100
AcDbArc
 50
180.0
 51
0.0
  0
LINE
  5
112
330
BE
100
AcDbEntity
  8
Predefinito
 62
     9
420
 12566463
100
AcDbLine
 10
5.49999999999998
 20
-0.0000000000000003
 30
212.5
 11
5.49999999999998
 21
-0.0000000000000003
 31
223.0
  0
ARC
  5
113
330
BE
100
AcDbEntity
  8
Predefinito
 62
     9
420
 12566463
100
AcDbCircle
 10
0.0
 20
0.0
 30
227.0
 40
4.55
100
AcDbArc
 50
180.0
 51
0.0
  0
ARC
  5
114
330
BE
100
AcDbEntity
  8
Predefinito
 62
     9
420
 12566463
100
AcDbCircle
 10
0.0
 20
0.0
 30
227.0
 40
4.55
100
AcDbArc
 50
0.000000000000007
 51
180.0
  0
ARC
  5
115
330
BE
100
AcDbEntity
  8
Predefinito
 62
     9
420
 12566463
100
AcDbCircle
 10
0.0
 20
0.0
 30
223.0
 40
4.55
100
AcDbArc
 50
0.0
 51
180.0
  0
ARC
  5
116
330
BE
100
AcDbEntity
  8
Predefinito
 62
     9
420
 12566463
100
AcDbCircle
 10
0.0
 20
0.0
 30
223.0
 40
4.55
100
AcDbArc
 50
180.0
 51
0.0
  0
LINE
  5
117
330
BE
100
AcDbEntity
  8
Predefinito
 62
     9
420
 12566463
100
AcDbLine
 10
4.55
 20
-0.0000000000000002
 30
223.0
 11
4.55
 21
-0.0000000000000002
 31
227.0
  0
ARC
  5
118
330
BE
100
AcDbEntity
  8
Predefinito
 62
     9
420
 12566463
100
AcDbCircle
 10
0.0000000000000013
 20
0.0
 30
227.220577136594
 40
3.300000000000005
100
AcDbArc
 50
180.0
 51
0.0
  0
ARC
  5
119
330
BE
100
AcDbEntity
  8
Predefinito
 62
     9
420
 12566463
100
AcDbCircle
 10
0.0000000000000013
 20
0.0
 30
227.220577136594
 40
3.300000000000005
100
AcDbArc
 50
0.000000000000007
 51
180.0
  0
ARC
  5
11A
330
BE
100
AcDbEntity
  8
Predefinito
 62
     9
420
 12566463
100
AcDbCircle
 10
0.0
 20
0.0
 30
227.0
 40
3.3
100
AcDbArc
 50
0.0
 51
180.0
  0
ARC
  5
11B
330
BE
100
AcDbEntity
  8
Predefinito
 62
     9
420
 12566463
100
AcDbCircle
 10
0.0000000000000002
 20
0.0
 30
227.0
 40
3.3
100
AcDbArc
 50
180.0
 51
0.0
  0
LINE
  5
11C
330
BE
100
AcDbEntity
  8
Predefinito
 62
     9
420
 12566463
100
AcDbLine
 10
3.3
 20
-0.0000000000000002
 30
227.0
 11
3.300000000000006
 21
0.0
 31
227.220577136594
  0
CIRCLE
  5
11D
330
BE
100
AcDbEntity
  8
Predefinito
 62
     9
420
 12566463
100
AcDbCircle
 10
0.0
 20
0.0
 30
228.0
 40
4.65
  0
ARC
  5
11E
330
BE
100
AcDbEntity
  8
Predefinito
 62
     9
420
 12566463
100
AcDbCircle
 10
-3.750000000000011
 20
228.0
 30
0.0
 40
0.8999999999999702
210
0.0
220
1.0
230
0.0
100
AcDbArc
 50
59.99999999999805
 51
180.0
  0
ARC
  5
11F
330
BE
100
AcDbEntity
  8
Predefinito
 62
     9
420
 12566463
100
AcDbCircle
 10
-0.0000000000000013
 20
0.0
 30
228.779422863406
 40
3.299999999999998
100
AcDbArc
 50
180.0
 51
0.0
  0
ARC
  5
120
330
BE
100
AcDbEntity
  8
Predefinito
 62
     9
420
 12566463
100
AcDbCircle
 10
-0.0000000000000013
 20
0.0
 30
228.779422863406
 40
3.299999999999998
100
AcDbArc
 50
0.000000000000007
 51
180.0
  0
ARC
  5
121
330
BE
100
AcDbEntity
  8
Predefinito
 62
     9
420
 12566463
100
AcDbCircle
 10
-3.749999999999994
 20
228.0
 30
0.0
 40
0.9000000000000089
210
0.0
220
1.0
230
0.0
100
AcDbArc
 50
180.0
 51
299.9999999999988
  0
ARC
  5
122
330
BE
100
AcDbEntity
  8
Predefinito
 62
     9
420
 12566463
100
AcDbCircle
 10
0.0
 20
0.0
 30
229.0
 40
3.3
100
AcDbArc
 50
180.0
 51
0.0
  0
ARC
  5
123
330
BE
100
AcDbEntity
  8
Predefinito
 62
     9
420
 12566463
100
AcDbCircle
 10
0.0000000000000002
 20
0.0
 30
229.0
 40
3.3
100
AcDbArc
 50
0.000000000000007
 51
180.0
  0
LINE
  5
124
330
BE
100
AcDbEntity
  8
Predefinito
 62
     9
420
 12566463
100
AcDbLine
 10
3.299999999999997
 20
0.0
 30
228.779422863406
 11
3.3
 21
-0.0000000000000002
 31
229.0
  0
ARC
  5
125
330
BE
100
AcDbEntity
  8
Predefinito
 62
     9
420
 12566463
100
AcDbCircle
 10
0.0
 20
0.0
 30
233.5000000000001
 40
4.0
100
AcDbArc
 50
0.000000000000007
 51
180.0
  0
ARC
  5
126
330
BE
100
AcDbEntity
  8
Predefinito
 62
     9
420
 12566463
100
AcDbCircle
 10
-0.0000000000000004
 20
0.0
 30
233.5000000000001
 40
4.0
100
AcDbArc
 50
180.0
 51
0.0
  0
ARC
  5
127
330
BE
100
AcDbEntity
  8
Predefinito
 62
     9
420
 12566463
100
AcDbCircle
 10
0.0
 20
0.0
 30
229.0
 40
4.0
100
AcDbArc
 50
0.0
 51
180.0
  0
ARC
  5
128
330
BE
100
AcDbEntity
  8
Predefinito
 62
     9
420
 12566463
100
AcDbCircle
 10
0.0
 20
0.0
 30
229.0
 40
4.0
100
AcDbArc
 50
180.0
 51
0.0
  0
LINE
  5
129
330
BE
100
AcDbEntity
  8
Predefinito
 62
     9
420
 12566463
100
AcDbLine
 10
4.0
 20
-0.0000000000000002
 30
229.0
 11
4.0
 21
0.0
 31
233.5
  0
ARC
  5
12A
330
BE
100
AcDbEntity
  8
Predefinito
 62
     9
420
 12566463
100
AcDbCircle
 10
0.0
 20
0.0
 30
212.5
 40
2.3
100
AcDbArc
 50
180.0
 51
0.0
  0
ARC
  5
12B
330
BE
100
AcDbEntity
  8
Predefinito
 62
     9
420
 12566463
100
AcDbCircle
 10
0.0000000000000002
 20
0.0
 30
212.5
 40
2.3
100
AcDbArc
 50
0.000000000000007
 51
180.0
  0
ARC
  5
12C
330
BE
100
AcDbEntity
  8
Predefinito
 62
     9
420
 12566463
100
AcDbCircle
 10
0.0
 20
0.0
 30
234.0
 40
2.3
100
AcDbArc
 50
0.0
 51
180.0
  0
ARC
  5
12D
330
BE
100
AcDbEntity
  8
Predefinito
 62
     9
420
 12566463
100
AcDbCircle
 10
0.0000000000000002
 20
0.0
 30
234.0
 40
2.3
100
AcDbArc
 50
180.0
 51
0.0
  0
LINE
  5
12E
330
BE
100
AcDbEntity
  8
Predefinito
 62
     9
420
 12566463
100
AcDbLine
 10
2.3
 20
-0.0000000000000001
 30
212.5
 11
2.3
 21
-0.0000000000000001
 31
234.0
  0
SPLINE
  5
12F
330
BE
100
AcDbEntity
  8
Predefinito
 62
     9
420
 12566463
100
AcDbSpline
210
-0.4999999999999994
220
-0.866025403784439
230
-2.653756624688003E-15
 70
     8
 71
     3
 72
     8
 73
     4
 74
     0
 42
0.000000001
 43
0.0000000001
 40
0.0000002309401077
 40
0.0000002309401077
 40
0.0000002309401077
 40
0.0000002309401077
 40
0.0012002309401077
 40
0.0012002309401077
 40
0.0012002309401077
 40
0.0012002309401077
 10
-3.81051177665153
 20
-5.400000000000013
 30
3.616467961323
 10
-3.464101615137758
 20
-5.60000000000001
 30
3.67747865194861
 10
-3.11769145362398
 20
-5.80000000000001
 30
3.67747865194861
 10
-2.771281292110209
 20
-6.000000000000009
 30
3.616467961323
  0
LINE
  5
130
330
BE
100
AcDbEntity
  8
Predefinito
 62
     9
420
 12566463
100
AcDbLine
 10
-3.810511776651532
 20
-5.400000000000013
 30
-0.999999999999996
 11
-3.81051177665153
 21
-5.400000000000013
 31
3.616467961323
  0
LINE
  5
131
330
BE
100
AcDbEntity
  8
Predefinito
 62
     9
420
 12566463
100
AcDbLine
 10
-2.771281292110201
 20
-6.000000000000012
 30
-0.999999999999996
 11
-3.810511776651532
 21
-5.400000000000013
 31
-0.999999999999996
  0
SPLINE
  5
132
330
BE
100
AcDbEntity
  8
Predefinito
 62
     9
420
 12566463
100
AcDbSpline
210
0.4999999999999996
220
-0.8660254037844388
230
-1.023591840951087E-14
 70
     8
 71
     3
 72
     8
 73
     4
 74
     0
 42
0.000000001
 43
0.0000000001
 40
0.0000002309401077
 40
0.0000002309401077
 40
0.0000002309401077
 40
0.0000002309401077
 40
0.0012002309401077
 40
0.0012002309401077
 40
0.0012002309401077
 40
0.0012002309401077
 10
2.77128129211019
 20
-6.000000000000011
 30
3.616467961323011
 10
3.117691453623969
 20
-5.80000000000001
 30
3.677478651948621
 10
3.46410161513774
 20
-5.600000000000012
 30
3.677478651948621
 10
3.810511776651519
 20
-5.40000000000001
 30
3.616467961323011
  0
LINE
  5
133
330
BE
100
AcDbEntity
  8
Predefinito
 62
     9
420
 12566463
100
AcDbLine
 10
2.771281292110189
 20
-6.000000000000009
 30
-0.999999999999996
 11
2.77128129211019
 21
-6.000000000000011
 31
3.616467961323011
  0
LINE
  5
134
330
BE
100
AcDbEntity
  8
Predefinito
 62
     9
420
 12566463
100
AcDbLine
 10
3.810511776651528
 20
-5.399999999999999
 30
-0.999999999999996
 11
2.771281292110189
 21
-6.000000000000009
 31
-0.999999999999996
  0
LINE
  5
135
330
BE
100
AcDbEntity
  8
Predefinito
 62
     9
420
 12566463
100
AcDbLine
 10
3.810511776651519
 20
-5.40000000000001
 30
3.616467961323011
 11
3.810511776651528
 21
-5.399999999999999
 31
-0.999999999999996
  0
SPLINE
  5
136
330
BE
100
AcDbEntity
  8
Predefinito
 62
     9
420
 12566463
100
AcDbSpline
210
1.0
220
-7.401486830834422E-16
230
4.852583542286200E-15
 70
     8
 71
     3
 72
     8
 73
     4
 74
     0
 42
0.000000001
 43
0.0000000001
 40
0.0032319472836569
 40
0.0032319472836569
 40
0.0032319472836569
 40
0.0032319472836569
 40
0.0044224045902886
 40
0.0044224045902886
 40
0.0044224045902886
 40
0.0044224045902886
 10
6.58179306876173
 20
-0.6000000000000086
 30
3.61646796132302
 10
6.58179306876173
 20
-0.2045779294969225
 30
3.676780395348031
 10
6.581793068761731
 20
0.2061469814850696
 30
3.676541072984461
 10
6.581793068761731
 20
0.5999999999999899
 30
3.616467961323021
  0
LINE
  5
137
330
BE
100
AcDbEntity
  8
Predefinito
 62
     9
420
 12566463
100
AcDbLine
 10
6.581793068761728
 20
-0.6000000000000089
 30
-0.999999999999996
 11
6.58179306876173
 21
-0.6000000000000086
 31
3.61646796132302
  0
LINE
  5
138
330
BE
100
AcDbEntity
  8
Predefinito
 62
     9
420
 12566463
100
AcDbLine
 10
6.581793068761731
 20
0.5999999999999899
 30
3.616467961323021
 11
6.58179306876173
 21
0.5999999999999878
 31
-0.999999999999996
  0
SPLINE
  5
139
330
BE
100
AcDbEntity
  8
Predefinito
 62
     9
420
 12566463
100
AcDbSpline
210
-0.5000000000000003
220
-0.8660254037844385
230
7.582161784822812E-16
 70
     8
 71
     3
 72
     8
 73
     4
 74
     0
 42
0.000000001
 43
0.0000000001
 40
0.0000002309401077
 40
0.0000002309401077
 40
0.0000002309401077
 40
0.0000002309401077
 40
0.0012002309401077
 40
0.0012002309401077
 40
0.0012002309401077
 40
0.0012002309401077
 10
3.810511776651528
 20
5.399999999999999
 30
3.61646796132302
 10
3.46410161513775
 20
5.600000000000001
 30
3.67747865194863
 10
3.117691453623979
 20
5.799999999999998
 30
3.67747865194863
 10
2.7712812921102
 20
6.0
 30
3.61646796132302
  0
LINE
  5
13A
330
BE
100
AcDbEntity
  8
Predefinito
 62
     9
420
 12566463
100
AcDbLine
 10
3.810511776651528
 20
5.399999999999999
 30
-0.999999999999996
 11
3.810511776651528
 21
5.399999999999999
 31
3.61646796132302
  0
LINE
  5
13B
330
BE
100
AcDbEntity
  8
Predefinito
 62
     9
420
 12566463
100
AcDbLine
 10
2.771281292110201
 20
5.999999999999995
 30
-0.999999999999996
 11
3.810511776651528
 21
5.399999999999999
 31
-0.999999999999996
  0
SPLINE
  5
13C
330
BE
100
AcDbEntity
  8
Predefinito
 62
     9
420
 12566463
100
AcDbSpline
210
0.9999998662592228
220
-0.0005157284078629991
230
3.880394204440430E-5
 70
     8
 71
     3
 72
     8
 73
     4
 74
     0
 42
0.000000001
 43
0.0000000001
 40
0.0032319472836568
 40
0.0032319472836568
 40
0.0032319472836568
 40
0.0032319472836568
 40
0.0038265961081716
 40
0.0038265961081716
 40
0.0038265961081716
 40
0.0038265961081716
 10
-6.581793068761742
 20
0.6000000000000006
 30
3.616467961322991
 10
-6.581896106065865
 20
0.4024815603897552
 30
3.646656130278571
 10
-6.582000526319573
 20
0.2011448604884831
 30
3.66173666148161
 10
-6.582104264824896
 20
0.0
 30
3.661797809890711
  0
LINE
  5
13D
330
BE
100
AcDbEntity
  8
Predefinito
 62
     9
420
 12566463
100
AcDbLine
 10
-6.581793068761745
 20
-0.6000000000000042
 30
3.616467961322992
 11
-6.581793068761742
 21
-0.6000000000000041
 31
-0.999999999999996
  0
SPLINE
  5
13E
330
BE
100
AcDbEntity
  8
Predefinito
 62
     9
420
 12566463
100
AcDbSpline
210
0.9999998662592229
220
0.0005157284078665545
230
3.880394193852540E-5
 70
     8
 71
     3
 72
     8
 73
     4
 74
     0
 42
0.000000001
 43
0.0000000001
 40
0.0038265961081716
 40
0.0038265961081716
 40
0.0038265961081716
 40
0.0038265961081716
 40
0.0044224045902886
 40
0.0044224045902886
 40
0.0044224045902886
 40
0.0044224045902886
 10
-6.582104264824896
 20
0.0
 30
3.661797809890711
 10
-6.582000323967143
 20
-0.2015371238524172
 30
3.661735346076244
 10
-6.581895897350589
 20
-0.4028816593294861
 30
3.646594980324813
 10
-6.581793068761745
 20
-0.6000000000000042
 30
3.616467961322992
  0
SPLINE
  5
13F
330
BE
100
AcDbEntity
  8
Predefinito
 62
     9
420
 12566463
100
AcDbSpline
210
0.4999999999999995
220
-0.8660254037844388
230
-1.516432356964659E-15
 70
     8
 71
     3
 72
     8
 73
     4
 74
     0
 42
0.000000001
 43
0.0000000001
 40
0.0000002309401077
 40
0.0000002309401077
 40
0.0000002309401077
 40
0.0000002309401077
 40
0.0012002309401077
 40
0.0012002309401077
 40
0.0012002309401077
 40
0.0012002309401077
 10
-2.771281292110209
 20
5.999999999999997
 30
3.616467961323019
 10
-3.11769145362398
 20
5.8
 30
3.677478651948619
 10
-3.464101615137759
 20
5.599999999999998
 30
3.67747865194862
 10
-3.810511776651531
 20
5.4
 30
3.616467961323011
  0
LINE
  5
140
330
BE
100
AcDbEntity
  8
Predefinito
 62
     9
420
 12566463
100
AcDbLine
 10
-2.771281292110209
 20
5.999999999999998
 30
-0.999999999999996
 11
-2.771281292110209
 21
5.999999999999997
 31
3.616467961323019
  0
LINE
  5
141
330
BE
100
AcDbEntity
  8
Predefinito
 62
     9
420
 12566463
100
AcDbLine
 10
-3.810511776651538
 20
5.399999999999999
 30
-0.999999999999996
 11
-2.771281292110209
 21
5.999999999999998
 31
-0.999999999999996
  0
ARC
  5
142
330
BE
100
AcDbEntity
  8
Predefinito
 62
     9
420
 12566463
100
AcDbCircle
 10
0.0
 20
0.0
 30
234.0
 40
3.5
100
AcDbArc
 50
0.000000000000007
 51
180.0
  0
ARC
  5
143
330
BE
100
AcDbEntity
  8
Predefinito
 62
     9
420
 12566463
100
AcDbCircle
 10
0.0
 20
0.0
 30
234.0
 40
3.5
100
AcDbArc
 50
180.0
 51
0.0
  0
LINE
  5
144
330
BE
100
AcDbEntity
  8
Predefinito
 62
     9
420
 12566463
100
AcDbLine
 10
-3.5
 20
-0.0000000000000002
 30
234.0
 11
-4.000000000000001
 21
0.0
 31
233.5000000000001
  0
CIRCLE
  5
145
330
BE
100
AcDbEntity
  8
Predefinito
 62
     9
420
 12566463
100
AcDbCircle
 10
0.0
 20
0.0
 30
106.25
 40
3.0
  0
LINE
  5
146
330
BE
100
AcDbEntity
  8
Predefinito
 62
     9
420
 12566463
100
AcDbLine
 10
0.0
 20
3.0
 30
212.5
 11
0.0
 21
3.0
 31
0.0000000000000036
  0
LINE
  5
147
330
BE
100
AcDbEntity
  8
Predefinito
 62
     9
420
 12566463
100
AcDbLine
 10
3.0
 20
0.0
 30
212.5
 11
3.0
 21
0.0
 31
0.0000000000000036
  0
LINE
  5
148
330
BE
100
AcDbEntity
  8
Predefinito
 62
     9
420
 12566463
100
AcDbLine
 10
0.0
 20
-3.0
 30
212.5
 11
0.0
 21
-3.0
 31
0.0000000000000036
  0
CIRCLE
  5
149
330
BE
100
AcDbEntity
  8
Predefinito
 62
     9
420
 12566463
100
AcDbCircle
 10
0.0
 20
0.0
 30
110.25
 40
4.0
  0
LINE
  5
14A
330
BE
100
AcDbEntity
  8
Predefinito
 62
     9
420
 12566463
100
AcDbLine
 10
0.0
 20
4.0
 30
212.5
 11
0.0
 21
4.0
 31
8.000000000000021
  0
LINE
  5
14B
330
BE
100
AcDbEntity
  8
Predefinito
 62
     9
420
 12566463
100
AcDbLine
 10
4.0
 20
0.0
 30
212.5
 11
4.0
 21
0.0
 31
7.999999999999995
  0
LINE
  5
14C
330
BE
100
AcDbEntity
  8
Predefinito
 62
     9
420
 12566463
100
AcDbLine
 10
0.0
 20
-4.0
 30
212.5
 11
0.0
 21
-4.0
 31
7.999999999999995
  0
LINE
  5
14D
330
BE
100
AcDbEntity
  8
Predefinito
 62
     9
420
 12566463
100
AcDbLine
 10
-6.500000000000005
 20
-0.000000000000004
 30
-0.999999999999996
 11
-6.58179306876174
 21
-0.000000000000004
 31
-0.999999999999996
  0
LINE
  5
14E
330
BE
100
AcDbEntity
  8
Predefinito
 62
     9
420
 12566463
100
AcDbLine
 10
-6.513972745734184
 20
-0.7174682452694658
 30
-0.999999999999996
 11
-6.513972745734184
 21
0.7174682452694612
 31
-0.999999999999996
  0
LINE
  5
14F
330
BE
100
AcDbEntity
  8
Predefinito
 62
     9
420
 12566463
100
AcDbLine
 10
-3.329465303532257
 20
-5.58253175473055
 30
-0.999999999999996
 11
-3.494357503463534
 21
-5.58253175473055
 31
-0.999999999999996
  0
LINE
  5
150
330
BE
100
AcDbEntity
  8
Predefinito
 62
     9
420
 12566463
100
AcDbLine
 10
-3.22307621135332
 20
-5.739156081756491
 30
-0.999999999999996
 11
-3.22307621135332
 21
-5.644623967618074
 31
-0.999999999999996
  0
LINE
  5
151
330
BE
100
AcDbEntity
  8
Predefinito
 62
     9
420
 12566463
100
AcDbLine
 10
3.494357503463492
 20
-5.582531754730566
 30
-0.999999999999996
 11
3.329465303532238
 21
-5.582531754730566
 31
-0.999999999999996
  0
LINE
  5
152
330
BE
100
AcDbEntity
  8
Predefinito
 62
     9
420
 12566463
100
AcDbLine
 10
3.223076211353304
 20
-5.739156081756494
 30
-0.999999999999996
 11
3.223076211353304
 21
-5.644623967618085
 31
-0.999999999999996
  0
LINE
  5
153
330
BE
100
AcDbEntity
  8
Predefinito
 62
     9
420
 12566463
100
AcDbLine
 10
6.58179306876173
 20
-0.000000000000012
 30
-0.999999999999996
 11
6.500000000000014
 21
-0.000000000000012
 31
-0.999999999999996
  0
LINE
  5
154
330
BE
100
AcDbEntity
  8
Predefinito
 62
     9
420
 12566463
100
AcDbLine
 10
6.513972745734186
 20
-0.7174682452694445
 30
-0.999999999999996
 11
6.513972745734186
 21
0.7174682452694311
 31
-0.999999999999996
  0
LINE
  5
155
330
BE
100
AcDbEntity
  8
Predefinito
 62
     9
420
 12566463
100
AcDbLine
 10
-3.329465259477268
 20
5.58253175473055
 30
-0.999999999999996
 11
-3.494357503463528
 21
5.58253175473055
 31
-0.999999999999996
  0
LINE
  5
156
330
BE
100
AcDbEntity
  8
Predefinito
 62
     9
420
 12566463
100
AcDbLine
 10
-3.223076211353325
 20
5.644623936993368
 30
-0.999999999999996
 11
-3.223076211353325
 21
5.739156081756484
 31
-0.999999999999996
  0
LINE
  5
157
330
BE
100
AcDbEntity
  8
Predefinito
 62
     9
420
 12566463
100
AcDbLine
 10
3.494357503463494
 20
5.58253175473056
 30
-0.999999999999996
 11
3.329465303532253
 21
5.58253175473056
 31
-0.999999999999996
  0
LINE
  5
158
330
BE
100
AcDbEntity
  8
Predefinito
 62
     9
420
 12566463
100
AcDbLine
 10
3.223076211353321
 20
5.644623967618081
 30
-0.999999999999996
 11
3.223076211353321
 21
5.739156081756475
 31
-0.999999999999996
  0
LINE
  5
159
330
BE
100
AcDbEntity
  8
Predefinito
 62
     9
420
 12566463
100
AcDbLine
 10
4.0
 20
0.0
 30
0.0
 11
3.0
 21
0.0
 31
0.0
  0
LINE
  5
15A
330
BE
100
AcDbEntity
  8
Predefinito
 62
     9
420
 12566463
100
AcDbLine
 10
-3.0
 20
0.0
 30
0.0
 11
-4.0
 21
0.0
 31
0.0
  0
LINE
  5
15B
330
BE
100
AcDbEntity
  8
Predefinito
 62
     9
420
 12566463
100
AcDbLine
 10
0.0
 20
-4.0
 30
0.0
 11
0.0
 21
-3.0
 31
0.0
  0
LINE
  5
15C
330
BE
100
AcDbEntity
  8
Predefinito
 62
     9
420
 12566463
100
AcDbLine
 10
0.0
 20
3.0
 30
0.0
 11
0.0
 21
4.0
 31
0.0
  0
LINE
  5
15D
330
BE
100
AcDbEntity
  8
Predefinito
 62
     9
420
 12566463
100
AcDbLine
 10
-4.499999999999996
 20
0.0
 30
-1.0
 11
-3.4585
 21
0.0
 31
-1.0
  0
LINE
  5
15E
330
BE
100
AcDbEntity
  8
Predefinito
 62
     9
420
 12566463
100
AcDbLine
 10
3.458499999999999
 20
0.0
 30
-1.0
 11
4.500000000000003
 21
0.0
 31
-1.0
  0
LINE
  5
15F
330
BE
100
AcDbEntity
  8
Predefinito
 62
     9
420
 12566463
100
AcDbLine
 10
0.0000000000000036
 20
-4.5
 30
-1.0
 11
0.0000000000000036
 21
-3.4585
 31
-1.0
  0
LINE
  5
160
330
BE
100
AcDbEntity
  8
Predefinito
 62
     9
420
 12566463
100
AcDbLine
 10
0.0000000000000036
 20
3.458499999999999
 30
-1.0
 11
0.0000000000000036
 21
4.500000000000001
 31
-1.0
  0
LINE
  5
161
330
BE
100
AcDbEntity
  8
Predefinito
 62
     9
420
 12566463
100
AcDbLine
 10
0.0000000000000035
 20
4.0
 30
0.0000000000000002
 11
0.0000000000000035
 21
4.499999999999999
 31
-1.0
  0
LINE
  5
162
330
BE
100
AcDbEntity
  8
Predefinito
 62
     9
420
 12566463
100
AcDbLine
 10
4.000000000000004
 20
0.0
 30
0.0000000000000013
 11
4.500000000000002
 21
0.0
 31
-1.0
  0
LINE
  5
163
330
BE
100
AcDbEntity
  8
Predefinito
 62
     9
420
 12566463
100
AcDbLine
 10
0.0000000000000035
 20
-4.0
 30
0.0000000000000002
 11
0.0000000000000035
 21
-4.499999999999999
 31
-1.0
  0
LINE
  5
164
330
BE
100
AcDbEntity
  8
Predefinito
 62
     9
420
 12566463
100
AcDbLine
 10
0.0000000000000035
 20
3.999999999999998
 30
7.999999999999999
 11
0.0000000000000035
 21
5.999999829521058
 31
4.639793458830436
  0
LINE
  5
165
330
BE
100
AcDbEntity
  8
Predefinito
 62
     9
420
 12566463
100
AcDbLine
 10
4.000000000000002
 20
0.0
 30
7.999999999999999
 11
6.582104261434737
 21
0.0
 31
3.66179781558654
  0
LINE
  5
166
330
BE
100
AcDbEntity
  8
Predefinito
 62
     9
420
 12566463
100
AcDbLine
 10
0.0000000000000035
 20
-3.999999999999998
 30
7.999999999999999
 11
0.0000000000000035
 21
-6.000000187373202
 31
4.639792857601826
  0
LINE
  5
167
330
BE
100
AcDbEntity
  8
Predefinito
 62
     9
420
 12566463
100
AcDbLine
 10
3.500000000000004
 20
0.0
 30
-10.0
 11
3.4585
 21
0.0
 31
-10.0
  0
LINE
  5
168
330
BE
100
AcDbEntity
  8
Predefinito
 62
     9
420
 12566463
100
AcDbLine
 10
-3.458499999999999
 20
0.0
 30
-10.0
 11
-3.499999999999996
 21
0.0
 31
-10.0
  0
LINE
  5
169
330
BE
100
AcDbEntity
  8
Predefinito
 62
     9
420
 12566463
100
AcDbLine
 10
0.000000000000004
 20
-3.5
 30
-10.0
 11
0.000000000000004
 21
-3.458499999999999
 31
-10.0
  0
LINE
  5
16A
330
BE
100
AcDbEntity
  8
Predefinito
 62
     9
420
 12566463
100
AcDbLine
 10
0.000000000000004
 20
3.458500000000001
 30
-10.0
 11
0.000000000000004
 21
3.5
 31
-10.0
  0
LINE
  5
16B
330
BE
100
AcDbEntity
  8
Predefinito
 62
     9
420
 12566463
100
AcDbLine
 10
0.0000000000000035
 20
3.5
 30
-10.0
 11
0.0000000000000035
 21
4.0
 31
-10.5
  0
LINE
  5
16C
330
BE
100
AcDbEntity
  8
Predefinito
 62
     9
420
 12566463
100
AcDbLine
 10
3.500000000000004
 20
0.0
 30
-10.0
 11
4.000000000000003
 21
0.0
 31
-10.5
  0
LINE
  5
16D
330
BE
100
AcDbEntity
  8
Predefinito
 62
     9
420
 12566463
100
AcDbLine
 10
0.0000000000000035
 20
-3.500000000000001
 30
-10.0
 11
0.0000000000000035
 21
-4.0
 31
-10.5
  0
LINE
  5
16E
330
BE
100
AcDbEntity
  8
Predefinito
 62
     9
420
 12566463
100
AcDbLine
 10
4.500000000000004
 20
0.0
 30
-10.5
 11
4.000000000000004
 21
0.0
 31
-10.5
  0
LINE
  5
16F
330
BE
100
AcDbEntity
  8
Predefinito
 62
     9
420
 12566463
100
AcDbLine
 10
-3.999999999999996
 20
0.0
 30
-10.5
 11
-4.499999999999996
 21
0.0
 31
-10.5
  0
LINE
  5
170
330
BE
100
AcDbEntity
  8
Predefinito
 62
     9
420
 12566463
100
AcDbLine
 10
0.0000000000000036
 20
-4.5
 30
-10.5
 11
0.0000000000000036
 21
-4.0
 31
-10.5
  0
LINE
  5
171
330
BE
100
AcDbEntity
  8
Predefinito
 62
     9
420
 12566463
100
AcDbLine
 10
0.0000000000000036
 20
4.0
 30
-10.5
 11
0.0000000000000036
 21
4.5
 31
-10.5
  0
CIRCLE
  5
172
330
BE
100
AcDbEntity
  8
Predefinito
 62
     9
420
 12566463
100
AcDbCircle
 10
0.0000000000000035
 20
0.0
 30
-13.25
 40
4.5
  0
LINE
  5
173
330
BE
100
AcDbEntity
  8
Predefinito
 62
     9
420
 12566463
100
AcDbLine
 10
0.0000000000000035
 20
4.5
 30
-10.5
 11
0.0000000000000035
 21
4.5
 31
-16.0
  0
LINE
  5
174
330
BE
100
AcDbEntity
  8
Predefinito
 62
     9
420
 12566463
100
AcDbLine
 10
4.500000000000004
 20
0.0
 30
-10.5
 11
4.500000000000004
 21
0.0
 31
-16.0
  0
LINE
  5
175
330
BE
100
AcDbEntity
  8
Predefinito
 62
     9
420
 12566463
100
AcDbLine
 10
0.0000000000000035
 20
-4.5
 30
-10.5
 11
0.0000000000000035
 21
-4.5
 31
-16.0
  0
LINE
  5
176
330
BE
100
AcDbEntity
  8
Predefinito
 62
     9
420
 12566463
100
AcDbLine
 10
6.500000000000012
 20
-0.0000000000000004
 30
-16.0
 11
4.500000000000003
 21
-0.0000000000000004
 31
-16.0
  0
LINE
  5
177
330
BE
100
AcDbEntity
  8
Predefinito
 62
     9
420
 12566463
100
AcDbLine
 10
-4.499999999999999
 20
-0.0000000000000004
 30
-16.0
 11
-6.500000000000007
 21
-0.0000000000000004
 31
-16.0
  0
LINE
  5
178
330
BE
100
AcDbEntity
  8
Predefinito
 62
     9
420
 12566463
100
AcDbLine
 10
0.0000000000000044
 20
-6.50000000000001
 30
-16.0
 11
0.0000000000000044
 21
-4.5
 31
-16.0
  0
LINE
  5
179
330
BE
100
AcDbEntity
  8
Predefinito
 62
     9
420
 12566463
100
AcDbLine
 10
0.0000000000000044
 20
4.500000000000001
 30
-16.0
 11
0.0000000000000044
 21
6.50000000000001
 31
-16.0
  0
CIRCLE
  5
17A
330
BE
100
AcDbEntity
  8
Predefinito
 62
     9
420
 12566463
100
AcDbCircle
 10
0.0000000000000035
 20
0.0
 30
-8.5
 40
6.50000000000001
  0
LINE
  5
17B
330
BE
100
AcDbEntity
  8
Predefinito
 62
     9
420
 12566463
100
AcDbLine
 10
0.0000000000000035
 20
6.50000000000001
 30
-0.9999999999999966
 11
0.0000000000000035
 21
6.50000000000001
 31
-16.0
  0
LINE
  5
17C
330
BE
100
AcDbEntity
  8
Predefinito
 62
     9
420
 12566463
100
AcDbLine
 10
6.500000000000013
 20
0.0
 30
-0.9999999999999963
 11
6.500000000000013
 21
0.0
 31
-16.0
  0
LINE
  5
17D
330
BE
100
AcDbEntity
  8
Predefinito
 62
     9
420
 12566463
100
AcDbLine
 10
0.0000000000000035
 20
-6.50000000000001
 30
-0.9999999999999963
 11
0.0000000000000035
 21
-6.50000000000001
 31
-16.0
  0
CIRCLE
  5
17E
330
BE
100
AcDbEntity
  8
Predefinito
 62
     9
420
 12566463
100
AcDbCircle
 10
0.0
 20
0.0
 30
-5.5
 40
3.4585
  0
LINE
  5
17F
330
BE
100
AcDbEntity
  8
Predefinito
 62
     9
420
 12566463
100
AcDbLine
 10
0.0
 20
3.4585
 30
-10.0
 11
0.0
 21
3.4585
 31
-0.9999999999999993
  0
LINE
  5
180
330
BE
100
AcDbEntity
  8
Predefinito
 62
     9
420
 12566463
100
AcDbLine
 10
-3.4585
 20
0.0
 30
-10.0
 11
-3.4585
 21
0.0
 31
-0.9999999999999993
  0
LINE
  5
181
330
BE
100
AcDbEntity
  8
Predefinito
 62
     9
420
 12566463
100
AcDbLine
 10
0.0
 20
-3.4585
 30
-10.0
 11
0.0
 21
-3.4585
 31
-0.9999999999999993
  0
LINE
  5
182
330
BE
100
AcDbEntity
  8
Predefinito
 62
     9
420
 12566463
100
AcDbLine
 10
-3.810511776651533
 20
5.399999999999999
 30
1.875957444595514
 11
-6.581793068761744
 21
0.6000000000000011
 31
1.875957444595514
  0
LINE
  5
183
330
BE
100
AcDbEntity
  8
Predefinito
 62
     9
420
 12566463
100
AcDbLine
 10
-5.196152422706637
 20
3.000000000000002
 30
-1.0
 11
-5.196152422706637
 21
3.000000000000002
 31
4.63979313633007
  0
LINE
  5
184
330
BE
100
AcDbEntity
  8
Predefinito
 62
     9
420
 12566463
100
AcDbLine
 10
-6.581793068761748
 20
-0.6000000000000073
 30
1.875957444595485
 11
-3.810511776651534
 21
-5.400000000000013
 31
1.875957444595485
  0
LINE
  5
185
330
BE
100
AcDbEntity
  8
Predefinito
 62
     9
420
 12566463
100
AcDbLine
 10
-5.196152422706643
 20
-3.00000000000001
 30
-1.0
 11
-5.196152422706643
 21
-3.00000000000001
 31
4.639793136329985
  0
LINE
  5
186
330
BE
100
AcDbEntity
  8
Predefinito
 62
     9
420
 12566463
100
AcDbLine
 10
-0.0000000000000098
 20
-6.00000000000001
 30
4.639792724930174
 11
-0.0000000000000098
 21
-6.00000000000001
 31
-0.9999999999999996
  0
LINE
  5
187
330
BE
100
AcDbEntity
  8
Predefinito
 62
     9
420
 12566463
100
AcDbLine
 10
-2.771281292110206
 20
-6.00000000000001
 30
1.87558861001628
 11
2.771281292110189
 21
-6.00000000000001
 31
1.87558861001628
  0
LINE
  5
188
330
BE
100
AcDbEntity
  8
Predefinito
 62
     9
420
 12566463
100
AcDbLine
 10
3.810511776651517
 20
-5.400000000000003
 30
1.875957444595514
 11
6.581793068761725
 21
-0.6000000000000072
 31
1.875957444595514
  0
LINE
  5
189
330
BE
100
AcDbEntity
  8
Predefinito
 62
     9
420
 12566463
100
AcDbLine
 10
5.19615242270662
 20
-3.000000000000007
 30
-1.0
 11
5.19615242270662
 21
-3.000000000000007
 31
4.63979313633007
  0
LINE
  5
18A
330
BE
100
AcDbEntity
  8
Predefinito
 62
     9
420
 12566463
100
AcDbLine
 10
6.58179306876173
 20
0.5999999999999857
 30
1.875957444595514
 11
3.810511776651527
 21
5.399999999999998
 31
1.875957444595514
  0
LINE
  5
18B
330
BE
100
AcDbEntity
  8
Predefinito
 62
     9
420
 12566463
100
AcDbLine
 10
5.196152422706627
 20
2.999999999999992
 30
-1.0
 11
5.196152422706627
 21
2.999999999999992
 31
4.639793136330013
  0
LINE
  5
18C
330
BE
100
AcDbEntity
  8
Predefinito
 62
     9
420
 12566463
100
AcDbLine
 10
-0.0000000000000044
 20
6.0
 30
-1.0
 11
-0.0000000000000044
 21
6.0
 31
4.639793276610419
  0
LINE
  5
18D
330
BE
100
AcDbEntity
  8
Predefinito
 62
     9
420
 12566463
100
AcDbLine
 10
-2.771281292110209
 20
6.0
 30
1.875827482205551
 11
2.7712812921102
 21
6.0
 31
1.875827482205551
  0
LINE
  5
18E
330
BE
100
AcDbEntity
  8
Predefinito
 62
     9
420
 12566463
100
AcDbLine
 10
-5.196152422706636
 20
-3.00000000000001
 30
-0.999999999999996
 11
-5.7662812973354
 21
-3.00000000000001
 31
-0.999999999999996
  0
LINE
  5
18F
330
BE
100
AcDbEntity
  8
Predefinito
 62
     9
420
 12566463
100
AcDbLine
 10
-5.196152422706636
 20
-3.905124837953328
 30
-0.999999999999996
 11
-5.196152422706636
 21
-3.00000000000001
 31
-0.999999999999996
  0
LINE
  5
190
330
BE
100
AcDbEntity
  8
Predefinito
 62
     9
420
 12566463
100
AcDbLine
 10
-0.0000000000000003
 20
-6.500000000000009
 30
-0.999999999999996
 11
-0.0000000000000003
 21
-6.000000000000011
 31
-0.999999999999996
  0
LINE
  5
191
330
BE
100
AcDbEntity
  8
Predefinito
 62
     9
420
 12566463
100
AcDbLine
 10
5.766281297335407
 20
-3.000000000000003
 30
-0.999999999999996
 11
5.196152422706624
 21
-3.000000000000003
 31
-0.999999999999996
  0
LINE
  5
192
330
BE
100
AcDbEntity
  8
Predefinito
 62
     9
420
 12566463
100
AcDbLine
 10
5.196152422706625
 20
-3.90512483795335
 30
-0.999999999999996
 11
5.196152422706625
 21
-3.000000000000003
 31
-0.999999999999996
  0
LINE
  5
193
330
BE
100
AcDbEntity
  8
Predefinito
 62
     9
420
 12566463
100
AcDbLine
 10
5.766280884113456
 20
2.999999999999991
 30
-0.999999999999996
 11
5.196152422706629
 21
2.999999999999991
 31
-0.999999999999996
  0
LINE
  5
194
330
BE
100
AcDbEntity
  8
Predefinito
 62
     9
420
 12566463
100
AcDbLine
 10
5.19615242270663
 20
2.999999999999989
 30
-0.999999999999996
 11
5.19615242270663
 21
3.905124355476246
 31
-0.999999999999996
  0
LINE
  5
195
330
BE
100
AcDbEntity
  8
Predefinito
 62
     9
420
 12566463
100
AcDbLine
 10
0.0000000000000052
 20
6.000000000000001
 30
-0.999999999999996
 11
0.0000000000000052
 21
6.500000000000009
 31
-0.999999999999996
  0
LINE
  5
196
330
BE
100
AcDbEntity
  8
Predefinito
 62
     9
420
 12566463
100
AcDbLine
 10
-5.19615242270663
 20
3.000000000000011
 30
-0.999999999999996
 11
-5.766281297335397
 21
3.000000000000011
 31
-0.999999999999996
  0
LINE
  5
197
330
BE
100
AcDbEntity
  8
Predefinito
 62
     9
420
 12566463
100
AcDbLine
 10
-5.19615242270663
 20
3.00000000000001
 30
-0.999999999999996
 11
-5.19615242270663
 21
3.905124837953335
 31
-0.999999999999996
  0
LINE
  5
198
330
BE
100
AcDbEntity
  8
Predefinito
 62
     9
420
 12566463
100
AcDbLine
 10
-3.0
 20
0.0
 30
212.5
 11
-2.3
 21
0.0
 31
212.5
  0
LINE
  5
199
330
BE
100
AcDbEntity
  8
Predefinito
 62
     9
420
 12566463
100
AcDbLine
 10
2.300000000000001
 20
0.0
 30
212.5
 11
3.0
 21
0.0
 31
212.5
  0
LINE
  5
19A
330
BE
100
AcDbEntity
  8
Predefinito
 62
     9
420
 12566463
100
AcDbLine
 10
-0.0000000000000001
 20
-2.999999999999999
 30
212.5
 11
-0.0000000000000001
 21
-2.3
 31
212.5
  0
LINE
  5
19B
330
BE
100
AcDbEntity
  8
Predefinito
 62
     9
420
 12566463
100
AcDbLine
 10
-0.0000000000000001
 20
2.300000000000001
 30
212.5
 11
-0.0000000000000001
 21
3.0
 31
212.5
  0
LINE
  5
19C
330
BE
100
AcDbEntity
  8
Predefinito
 62
     9
420
 12566463
100
AcDbLine
 10
-5.49999999999998
 20
-0.0000000000000009
 30
212.5
 11
-4.0
 21
-0.0000000000000009
 31
212.5
  0
LINE
  5
19D
330
BE
100
AcDbEntity
  8
Predefinito
 62
     9
420
 12566463
100
AcDbLine
 10
4.0
 20
-0.0000000000000009
 30
212.5
 11
5.499999999999979
 21
-0.0000000000000009
 31
212.5
  0
LINE
  5
19E
330
BE
100
AcDbEntity
  8
Predefinito
 62
     9
420
 12566463
100
AcDbLine
 10
-0.0000000000000001
 20
-5.49999999999998
 30
212.5
 11
-0.0000000000000001
 21
-3.999999999999999
 31
212.5
  0
LINE
  5
19F
330
BE
100
AcDbEntity
  8
Predefinito
 62
     9
420
 12566463
100
AcDbLine
 10
-0.0000000000000001
 20
3.999999999999999
 30
212.5
 11
-0.0000000000000001
 21
5.499999999999979
 31
212.5
  0
CIRCLE
  5
1A0
330
BE
100
AcDbEntity
  8
Predefinito
 62
     9
420
 12566463
100
AcDbCircle
 10
0.0
 20
0.0
 30
217.75
 40
5.49999999999998
  0
LINE
  5
1A1
330
BE
100
AcDbEntity
  8
Predefinito
 62
     9
420
 12566463
100
AcDbLine
 10
0.0
 20
5.49999999999998
 30
212.5
 11
0.0
 21
5.49999999999998
 31
223.0
  0
LINE
  5
1A2
330
BE
100
AcDbEntity
  8
Predefinito
 62
     9
420
 12566463
100
AcDbLine
 10
-5.49999999999998
 20
0.0
 30
212.5
 11
-5.49999999999998
 21
0.0
 31
223.0
  0
LINE
  5
1A3
330
BE
100
AcDbEntity
  8
Predefinito
 62
     9
420
 12566463
100
AcDbLine
 10
0.0
 20
-5.49999999999998
 30
212.5
 11
0.0
 21
-5.49999999999998
 31
223.0
  0
LINE
  5
1A4
330
BE
100
AcDbEntity
  8
Predefinito
 62
     9
420
 12566463
100
AcDbLine
 10
5.499999999999979
 20
-0.0000000000000009
 30
223.0
 11
4.549999999999999
 21
-0.0000000000000009
 31
223.0
  0
LINE
  5
1A5
330
BE
100
AcDbEntity
  8
Predefinito
 62
     9
420
 12566463
100
AcDbLine
 10
-4.549999999999998
 20
-0.0000000000000009
 30
223.0
 11
-5.49999999999998
 21
-0.0000000000000009
 31
223.0
  0
LINE
  5
1A6
330
BE
100
AcDbEntity
  8
Predefinito
 62
     9
420
 12566463
100
AcDbLine
 10
-0.0000000000000001
 20
-5.49999999999998
 30
223.0
 11
-0.0000000000000001
 21
-4.55
 31
223.0
  0
LINE
  5
1A7
330
BE
100
AcDbEntity
  8
Predefinito
 62
     9
420
 12566463
100
AcDbLine
 10
-0.0000000000000001
 20
4.55
 30
223.0
 11
-0.0000000000000001
 21
5.499999999999979
 31
223.0
  0
CIRCLE
  5
1A8
330
BE
100
AcDbEntity
  8
Predefinito
 62
     9
420
 12566463
100
AcDbCircle
 10
0.0
 20
0.0
 30
224.9999999999999
 40
4.55
  0
LINE
  5
1A9
330
BE
100
AcDbEntity
  8
Predefinito
 62
     9
420
 12566463
100
AcDbLine
 10
0.0
 20
4.55
 30
223.0
 11
0.0
 21
4.55
 31
227.0
  0
LINE
  5
1AA
330
BE
100
AcDbEntity
  8
Predefinito
 62
     9
420
 12566463
100
AcDbLine
 10
-4.55
 20
0.0
 30
223.0
 11
-4.55
 21
0.0
 31
227.0
  0
LINE
  5
1AB
330
BE
100
AcDbEntity
  8
Predefinito
 62
     9
420
 12566463
100
AcDbLine
 10
0.0
 20
-4.55
 30
223.0
 11
0.0
 21
-4.55
 31
227.0
  0
LINE
  5
1AC
330
BE
100
AcDbEntity
  8
Predefinito
 62
     9
420
 12566463
100
AcDbLine
 10
4.55
 20
-0.0000000000000009
 30
227.0
 11
3.299999999999999
 21
-0.0000000000000009
 31
227.0
  0
LINE
  5
1AD
330
BE
100
AcDbEntity
  8
Predefinito
 62
     9
420
 12566463
100
AcDbLine
 10
-3.300000000000001
 20
-0.0000000000000009
 30
227.0
 11
-4.549999999999998
 21
-0.0000000000000009
 31
227.0
  0
LINE
  5
1AE
330
BE
100
AcDbEntity
  8
Predefinito
 62
     9
420
 12566463
100
AcDbLine
 10
-0.0000000000000002
 20
-4.55
 30
227.0
 11
-0.0000000000000002
 21
-3.3
 31
227.0
  0
LINE
  5
1AF
330
BE
100
AcDbEntity
  8
Predefinito
 62
     9
420
 12566463
100
AcDbLine
 10
-0.0000000000000002
 20
3.3
 30
227.0
 11
-0.0000000000000002
 21
4.549999999999999
 31
227.0
  0
CIRCLE
  5
1B0
330
BE
100
AcDbEntity
  8
Predefinito
 62
     9
420
 12566463
100
AcDbCircle
 10
0.0
 20
0.0
 30
227.1102885682971
 40
3.3
  0
LINE
  5
1B1
330
BE
100
AcDbEntity
  8
Predefinito
 62
     9
420
 12566463
100
AcDbLine
 10
0.0
 20
3.3
 30
227.0
 11
0.0
 21
3.3
 31
227.220577136594
  0
LINE
  5
1B2
330
BE
100
AcDbEntity
  8
Predefinito
 62
     9
420
 12566463
100
AcDbLine
 10
-3.3
 20
0.0
 30
227.0
 11
-3.3
 21
0.0
 31
227.220577136594
  0
LINE
  5
1B3
330
BE
100
AcDbEntity
  8
Predefinito
 62
     9
420
 12566463
100
AcDbLine
 10
0.0
 20
-3.3
 30
227.0
 11
0.0
 21
-3.3
 31
227.220577136594
  0
CIRCLE
  5
1B4
330
BE
100
AcDbEntity
  8
Predefinito
 62
     9
420
 12566463
100
AcDbCircle
 10
0.0
 20
0.0
 30
227.1
 40
3.75
  0
ARC
  5
1B5
330
BE
100
AcDbEntity
  8
Predefinito
 62
     9
420
 12566463
100
AcDbCircle
 10
3.75
 20
228.0
 30
0.0
 40
0.9
210
1.0
220
0.0
230
0.0
100
AcDbArc
 50
240.0000000000011
 51
0.0
  0
ARC
  5
1B6
330
BE
100
AcDbEntity
  8
Predefinito
 62
     9
420
 12566463
100
AcDbCircle
 10
3.75
 20
228.0
 30
0.0
 40
0.9
210
0.0
220
1.0
230
0.0
100
AcDbArc
 50
240.0000000000009
 51
0.0
  0
ARC
  5
1B7
330
BE
100
AcDbEntity
  8
Predefinito
 62
     9
420
 12566463
100
AcDbCircle
 10
-3.75
 20
228.0
 30
0.0
 40
0.9
210
1.0
220
0.0
230
0.0
100
AcDbArc
 50
180.0
 51
299.999999999999
  0
CIRCLE
  5
1B8
330
BE
100
AcDbEntity
  8
Predefinito
 62
     9
420
 12566463
100
AcDbCircle
 10
0.0
 20
0.0
 30
228.9
 40
3.75
  0
ARC
  5
1B9
330
BE
100
AcDbEntity
  8
Predefinito
 62
     9
420
 12566463
100
AcDbCircle
 10
3.75
 20
228.0
 30
0.0
 40
0.9
210
1.0
220
0.0
230
0.0
100
AcDbArc
 50
0.0
 51
120.0000000000005
  0
ARC
  5
1BA
330
BE
100
AcDbEntity
  8
Predefinito
 62
     9
420
 12566463
100
AcDbCircle
 10
3.75
 20
228.0
 30
0.0
 40
0.9
210
0.0
220
1.0
230
0.0
100
AcDbArc
 50
0.0
 51
120.0000000000004
  0
ARC
  5
1BB
330
BE
100
AcDbEntity
  8
Predefinito
 62
     9
420
 12566463
100
AcDbCircle
 10
-3.75
 20
228.0
 30
0.0
 40
0.9
210
1.0
220
0.0
230
0.0
100
AcDbArc
 50
59.99999999999963
 51
180.0
  0
CIRCLE
  5
1BC
330
BE
100
AcDbEntity
  8
Predefinito
 62
     9
420
 12566463
100
AcDbCircle
 10
0.0
 20
0.0
 30
228.889711431703
 40
3.3
  0
LINE
  5
1BD
330
BE
100
AcDbEntity
  8
Predefinito
 62
     9
420
 12566463
100
AcDbLine
 10
0.0
 20
3.3
 30
228.779422863406
 11
0.0
 21
3.3
 31
229.0
  0
LINE
  5
1BE
330
BE
100
AcDbEntity
  8
Predefinito
 62
     9
420
 12566463
100
AcDbLine
 10
-3.3
 20
0.0
 30
228.779422863406
 11
-3.3
 21
0.0
 31
229.0
  0
LINE
  5
1BF
330
BE
100
AcDbEntity
  8
Predefinito
 62
     9
420
 12566463
100
AcDbLine
 10
0.0
 20
-3.3
 30
228.779422863406
 11
0.0
 21
-3.3
 31
229.0
  0
LINE
  5
1C0
330
BE
100
AcDbEntity
  8
Predefinito
 62
     9
420
 12566463
100
AcDbLine
 10
-4.0
 20
-0.0000000000000009
 30
229.0
 11
-3.300000000000001
 21
-0.0000000000000009
 31
229.0
  0
LINE
  5
1C1
330
BE
100
AcDbEntity
  8
Predefinito
 62
     9
420
 12566463
100
AcDbLine
 10
3.3
 20
-0.0000000000000009
 30
229.0
 11
4.0
 21
-0.0000000000000009
 31
229.0
  0
LINE
  5
1C2
330
BE
100
AcDbEntity
  8
Predefinito
 62
     9
420
 12566463
100
AcDbLine
 10
0.0000000000000002
 20
-4.0
 30
229.0
 11
0.0000000000000002
 21
-3.299999999999999
 31
229.0
  0
LINE
  5
1C3
330
BE
100
AcDbEntity
  8
Predefinito
 62
     9
420
 12566463
100
AcDbLine
 10
0.0000000000000002
 20
3.3
 30
229.0
 11
0.0000000000000002
 21
4.0
 31
229.0
  0
CIRCLE
  5
1C4
330
BE
100
AcDbEntity
  8
Predefinito
 62
     9
420
 12566463
100
AcDbCircle
 10
0.0
 20
0.0
 30
231.25
 40
4.0
  0
LINE
  5
1C5
330
BE
100
AcDbEntity
  8
Predefinito
 62
     9
420
 12566463
100
AcDbLine
 10
0.0
 20
4.0
 30
229.0
 11
0.0
 21
4.0
 31
233.5
  0
LINE
  5
1C6
330
BE
100
AcDbEntity
  8
Predefinito
 62
     9
420
 12566463
100
AcDbLine
 10
-4.0
 20
0.0
 30
229.0
 11
-4.0
 21
0.0
 31
233.5
  0
LINE
  5
1C7
330
BE
100
AcDbEntity
  8
Predefinito
 62
     9
420
 12566463
100
AcDbLine
 10
0.0
 20
-4.0
 30
229.0
 11
0.0
 21
-4.0
 31
233.5
  0
LINE
  5
1C8
330
BE
100
AcDbEntity
  8
Predefinito
 62
     9
420
 12566463
100
AcDbLine
 10
3.5
 20
0.0
 30
234.0
 11
2.299999999999999
 21
0.0
 31
234.0
  0
LINE
  5
1C9
330
BE
100
AcDbEntity
  8
Predefinito
 62
     9
420
 12566463
100
AcDbLine
 10
-2.300000000000001
 20
0.0
 30
234.0
 11
-3.5
 21
0.0
 31
234.0
  0
LINE
  5
1CA
330
BE
100
AcDbEntity
  8
Predefinito
 62
     9
420
 12566463
100
AcDbLine
 10
0.0000000000000002
 20
-3.5
 30
234.0
 11
0.0000000000000002
 21
-2.3
 31
234.0
  0
LINE
  5
1CB
330
BE
100
AcDbEntity
  8
Predefinito
 62
     9
420
 12566463
100
AcDbLine
 10
0.0000000000000002
 20
2.3
 30
234.0
 11
0.0000000000000002
 21
3.5
 31
234.0
  0
CIRCLE
  5
1CC
330
BE
100
AcDbEntity
  8
Predefinito
 62
     9
420
 12566463
100
AcDbCircle
 10
0.0
 20
0.0
 30
223.25
 40
2.3
  0
LINE
  5
1CD
330
BE
100
AcDbEntity
  8
Predefinito
 62
     9
420
 12566463
100
AcDbLine
 10
0.0
 20
2.3
 30
212.5
 11
0.0
 21
2.3
 31
234.0
  0
LINE
  5
1CE
330
BE
100
AcDbEntity
  8
Predefinito
 62
     9
420
 12566463
100
AcDbLine
 10
-2.3
 20
0.0
 30
212.5
 11
-2.3
 21
0.0
 31
234.0
  0
LINE
  5
1CF
330
BE
100
AcDbEntity
  8
Predefinito
 62
     9
420
 12566463
100
AcDbLine
 10
0.0
 20
-2.3
 30
212.5
 11
0.0
 21
-2.3
 31
234.0
  0
LINE
  5
1D0
330
BE
100
AcDbEntity
  8
Predefinito
 62
     9
420
 12566463
100
AcDbLine
 10
-2.771281292110206
 20
-6.000000000000012
 30
1.338739325974302
 11
-3.810511776651532
 21
-5.400000000000014
 31
1.338739325974302
  0
LINE
  5
1D1
330
BE
100
AcDbEntity
  8
Predefinito
 62
     9
420
 12566463
100
AcDbLine
 10
-3.290896534380867
 20
-5.700000000000014
 30
-0.9999999999999998
 11
-3.290896534380867
 21
-5.700000000000014
 31
3.662225979292202
  0
LINE
  5
1D2
330
BE
100
AcDbEntity
  8
Predefinito
 62
     9
420
 12566463
100
AcDbLine
 10
3.810511776651526
 20
-5.400000000000007
 30
1.338739325974302
 11
2.771281292110189
 21
-6.000000000000011
 31
1.338739325974302
  0
LINE
  5
1D3
330
BE
100
AcDbEntity
  8
Predefinito
 62
     9
420
 12566463
100
AcDbLine
 10
3.290896534380861
 20
-5.700000000000007
 30
-0.9999999999999998
 11
3.290896534380861
 21
-5.700000000000007
 31
3.662225979292089
  0
LINE
  5
1D4
330
BE
100
AcDbEntity
  8
Predefinito
 62
     9
420
 12566463
100
AcDbLine
 10
6.58179306876173
 20
0.59999999999999
 30
1.338390197674016
 11
6.581793068761729
 21
-0.60000000000001
 31
1.338390197674016
  0
LINE
  5
1D5
330
BE
100
AcDbEntity
  8
Predefinito
 62
     9
420
 12566463
100
AcDbLine
 10
6.58179306876173
 20
-0.0000000000000094
 30
-0.9999999999999999
 11
6.58179306876173
 21
-0.0000000000000094
 31
3.661612585540524
  0
LINE
  5
1D6
330
BE
100
AcDbEntity
  8
Predefinito
 62
     9
420
 12566463
100
AcDbLine
 10
2.771281292110202
 20
5.999999999999998
 30
1.338739325974302
 11
3.810511776651529
 21
5.399999999999999
 31
1.338739325974302
  0
LINE
  5
1D7
330
BE
100
AcDbEntity
  8
Predefinito
 62
     9
420
 12566463
100
AcDbLine
 10
3.290896534380865
 20
5.699999999999999
 30
-0.9999999999999998
 11
3.290896534380865
 21
5.699999999999999
 31
3.662225979292202
  0
LINE
  5
1D8
330
BE
100
AcDbEntity
  8
Predefinito
 62
     9
420
 12566463
100
AcDbLine
 10
-6.58179306876174
 20
-0.000000000000001
 30
3.661612585540439
 11
-6.58179306876174
 21
-0.000000000000001
 31
-0.9999999999999998
  0
LINE
  5
1D9
330
BE
100
AcDbEntity
  8
Predefinito
 62
     9
420
 12566463
100
AcDbLine
 10
-6.58179306876174
 20
-0.6000000000000015
 30
1.338390197674016
 11
-6.58179306876174
 21
0.6
 31
1.338390197674016
  0
LINE
  5
1DA
330
BE
100
AcDbEntity
  8
Predefinito
 62
     9
420
 12566463
100
AcDbLine
 10
-3.810511776651534
 20
5.399999999999999
 30
1.338739325974302
 11
-2.771281292110209
 21
5.999999999999997
 31
1.338739325974302
  0
LINE
  5
1DB
330
BE
100
AcDbEntity
  8
Predefinito
 62
     9
420
 12566463
100
AcDbLine
 10
-3.290896534380873
 20
5.699999999999997
 30
-0.9999999999999998
 11
-3.290896534380873
 21
5.699999999999997
 31
3.662225979292202
  0
LINE
  5
1DC
330
BE
100
AcDbEntity
  8
Predefinito
 62
     9
420
 12566463
100
AcDbLine
 10
0.0
 20
3.500000000000001
 30
234.0
 11
0.0
 21
4.000000000000001
 31
233.5
  0
LINE
  5
1DD
330
BE
100
AcDbEntity
  8
Predefinito
 62
     9
420
 12566463
100
AcDbLine
 10
3.500000000000001
 20
0.0
 30
234.0
 11
4.000000000000001
 21
0.0
 31
233.5
  0
LINE
  5
1DE
330
BE
100
AcDbEntity
  8
Predefinito
 62
     9
420
 12566463
100
AcDbLine
 10
0.0
 20
-3.500000000000001
 30
234.0
 11
0.0
 21
-4.000000000000001
 31
233.5
  0
ENDBLK
  5
1E0
330
BE
100
AcDbEntity
  8
0
100
AcDbBlockEnd
  0
BLOCK
  5
2DB
330
1E3
100
AcDbEntity
  8
0
100
AcDbBlockBegin
  2
2900KF11-00
 70
     0
 10
0.0
 20
0.0
 30
0.0
  3
2900KF11-00
  1
2900KF11-00
  0
INSERT
  5
21A
330
1E3
100
AcDbEntity
  8
Predefinito
100
AcDbBlockReference
  2
10CO10760YY
 10
0.0
 20
0.0
 30
0.0
  0
INSERT
  5
24E
330
1E3
100
AcDbEntity
  8
Predefinito
100
AcDbBlockReference
  2
10CD03360YY
 10
0.0000000000000033
 20
0.0000000000000087
 30
6.4151530871405
 50
1.109997918831169
  0
INSERT
  5
2B0
330
1E3
100
AcDbEntity
  8
Predefinito
100
AcDbBlockReference
  2
10RO07360YY
 10
0.0000000000000069
 20
0.0000000000000013
 30
21.1356792381324
 50
355.1004013669217
  0
INSERT
  5
2CE
330
1E3
100
AcDbEntity
  8
Predefinito
100
AcDbBlockReference
  2
10AN16260YY
 10
0.0
 20
0.0000000000000017
 30
24.3468547691718
 50
2.718825813796883
  0
INSERT
  5
2DA
330
1E3
100
AcDbEntity
  8
Predefinito
100
AcDbBlockReference
  2
10OR15360YY
 10
0.0
 20
0.0
 30
39.0118245547465
  0
ENDBLK
  5
2DC
330
1E3
100
AcDbEntity
  8
0
100
AcDbBlockEnd
  0
BLOCK
  5
218
330
1E4
100
AcDbEntity
  8
0
100
AcDbBlockBegin
  2
10CO10760YY
 70
     0
 10
0.0
 20
0.0
 30
0.0
  3
10CO10760YY
  1
10CO10760YY
  0
ARC
  5
1E5
330
1E4
100
AcDbEntity
  8
Predefinito
100
AcDbCircle
 10
0.0
 20
0.0
 30
5.093294886355896
 40
16.0
100
AcDbArc
 50
180.0
 51
0.0
  0
ARC
  5
1E6
330
1E4
100
AcDbEntity
  8
Predefinito
100
AcDbCircle
 10
0.0
 20
0.0
 30
5.093294886355897
 40
16.0
100
AcDbArc
 50
0.000000000000007
 51
180.0
  0
ARC
  5
1E7
330
1E4
100
AcDbEntity
  8
Predefinito
100
AcDbCircle
 10
-0.0000000000000009
 20
0.0
 30
4.093294886355899
 40
15.0
100
AcDbArc
 50
0.0
 51
180.0
  0
ARC
  5
1E8
330
1E4
100
AcDbEntity
  8
Predefinito
100
AcDbCircle
 10
0.0000000000000009
 20
0.0
 30
4.093294886355899
 40
15.0
100
AcDbArc
 50
180.0
 51
0.0
  0
LINE
  5
1E9
330
1E4
100
AcDbEntity
  8
Predefinito
100
AcDbLine
 10
15.0
 20
-0.0000000000000007
 30
4.093294886355899
 11
16.0
 21
0.0
 31
5.093294886355895
  0
ARC
  5
1EA
330
1E4
100
AcDbEntity
  8
Predefinito
100
AcDbCircle
 10
0.0
 20
0.0
 30
64.09329488635589
 40
16.0
100
AcDbArc
 50
180.0
 51
0.0
  0
ARC
  5
1EB
330
1E4
100
AcDbEntity
  8
Predefinito
100
AcDbCircle
 10
0.0
 20
0.0
 30
64.0932948863559
 40
16.0
100
AcDbArc
 50
0.000000000000007
 51
180.0
  0
LINE
  5
1EC
330
1E4
100
AcDbEntity
  8
Predefinito
100
AcDbLine
 10
16.0
 20
0.0
 30
5.093294886355895
 11
16.0
 21
-0.0000000000000008
 31
64.0932948863559
  0
ARC
  5
1ED
330
1E4
100
AcDbEntity
  8
Predefinito
100
AcDbCircle
 10
0.0
 20
0.0
 30
73.09329488635602
 40
18.0
100
AcDbArc
 50
180.0
 51
0.0
  0
ARC
  5
1EE
330
1E4
100
AcDbEntity
  8
Predefinito
100
AcDbCircle
 10
0.0
 20
0.0
 30
73.09329488635603
 40
18.0
100
AcDbArc
 50
0.000000000000007
 51
180.0
  0
ARC
  5
1EF
330
1E4
100
AcDbEntity
  8
Predefinito
100
AcDbCircle
 10
0.0
 20
0.0
 30
64.0932948863559
 40
18.0
100
AcDbArc
 50
0.0
 51
180.0
  0
ARC
  5
1F0
330
1E4
100
AcDbEntity
  8
Predefinito
100
AcDbCircle
 10
0.0
 20
0.0
 30
64.0932948863559
 40
18.0
100
AcDbArc
 50
180.0
 51
0.0
  0
LINE
  5
1F1
330
1E4
100
AcDbEntity
  8
Predefinito
100
AcDbLine
 10
18.0
 20
-0.0000000000000009
 30
64.0932948863559
 11
18.0
 21
0.0
 31
73.09329488635602
  0
ARC
  5
1F2
330
1E4
100
AcDbEntity
  8
Predefinito
100
AcDbCircle
 10
0.0
 20
0.0
 30
74.093294886356
 40
17.0
100
AcDbArc
 50
180.0
 51
0.0
  0
ARC
  5
1F3
330
1E4
100
AcDbEntity
  8
Predefinito
100
AcDbCircle
 10
0.0
 20
0.0
 30
74.093294886356
 40
17.0
100
AcDbArc
 50
0.000000000000007
 51
180.0
  0
LINE
  5
1F4
330
1E4
100
AcDbEntity
  8
Predefinito
100
AcDbLine
 10
-17.0
 20
0.0000000000000008
 30
74.09329488635602
 11
-18.0
 21
0.0
 31
73.09329488635603
  0
ARC
  5
1F5
330
1E4
100
AcDbEntity
  8
Predefinito
100
AcDbCircle
 10
0.0
 20
0.0
 30
4.093294886355901
 40
13.5
100
AcDbArc
 50
180.0
 51
0.0
  0
ARC
  5
1F6
330
1E4
100
AcDbEntity
  8
Predefinito
100
AcDbCircle
 10
0.0
 20
0.0
 30
4.093294886355901
 40
13.5
100
AcDbArc
 50
0.0
 51
180.0
  0
ARC
  5
1F7
330
1E4
100
AcDbEntity
  8
Predefinito
100
AcDbCircle
 10
0.0
 20
0.0
 30
74.093294886356
 40
13.5
100
AcDbArc
 50
0.0
 51
180.0
  0
ARC
  5
1F8
330
1E4
100
AcDbEntity
  8
Predefinito
100
AcDbCircle
 10
0.0
 20
0.0
 30
74.093294886356
 40
13.5
100
AcDbArc
 50
180.0
 51
0.0
  0
LINE
  5
1F9
330
1E4
100
AcDbEntity
  8
Predefinito
100
AcDbLine
 10
13.5
 20
-0.0000000000000007
 30
4.093294886355902
 11
13.5
 21
-0.0000000000000007
 31
74.09329488635602
  0
LINE
  5
1FA
330
1E4
100
AcDbEntity
  8
Predefinito
100
AcDbLine
 10
0.0
 20
15.0
 30
4.093294886355897
 11
0.0
 21
16.0
 31
5.093294886355899
  0
LINE
  5
1FB
330
1E4
100
AcDbEntity
  8
Predefinito
100
AcDbLine
 10
-15.0
 20
0.0
 30
4.093294886355897
 11
-16.0
 21
0.0
 31
5.093294886355899
  0
LINE
  5
1FC
330
1E4
100
AcDbEntity
  8
Predefinito
100
AcDbLine
 10
0.0
 20
-15.0
 30
4.093294886355897
 11
0.0
 21
-16.0
 31
5.093294886355899
  0
CIRCLE
  5
1FD
330
1E4
100
AcDbEntity
  8
Predefinito
100
AcDbCircle
 10
0.0
 20
0.0
 30
34.59329488635589
 40
16.0
  0
LINE
  5
1FE
330
1E4
100
AcDbEntity
  8
Predefinito
100
AcDbLine
 10
0.0
 20
16.0
 30
5.093294886355889
 11
0.0
 21
16.0
 31
64.09329488635586
  0
LINE
  5
1FF
330
1E4
100
AcDbEntity
  8
Predefinito
100
AcDbLine
 10
-16.0
 20
0.0
 30
5.093294886355896
 11
-16.0
 21
0.0
 31
64.09329488635588
  0
LINE
  5
200
330
1E4
100
AcDbEntity
  8
Predefinito
100
AcDbLine
 10
0.0
 20
-16.0
 30
5.093294886355896
 11
0.0
 21
-16.0
 31
64.09329488635588
  0
LINE
  5
201
330
1E4
100
AcDbEntity
  8
Predefinito
100
AcDbLine
 10
-18.0
 20
0.0
 30
64.0932948863559
 11
-16.0
 21
0.0
 31
64.0932948863559
  0
LINE
  5
202
330
1E4
100
AcDbEntity
  8
Predefinito
100
AcDbLine
 10
16.0
 20
0.0
 30
64.0932948863559
 11
18.0
 21
0.0
 31
64.0932948863559
  0
LINE
  5
203
330
1E4
100
AcDbEntity
  8
Predefinito
100
AcDbLine
 10
0.0
 20
-18.0
 30
64.0932948863559
 11
0.0
 21
-16.0
 31
64.0932948863559
  0
LINE
  5
204
330
1E4
100
AcDbEntity
  8
Predefinito
100
AcDbLine
 10
0.0
 20
16.0
 30
64.0932948863559
 11
0.0
 21
18.0
 31
64.0932948863559
  0
CIRCLE
  5
205
330
1E4
100
AcDbEntity
  8
Predefinito
100
AcDbCircle
 10
0.0
 20
0.0
 30
68.59329488635598
 40
18.0
  0
LINE
  5
206
330
1E4
100
AcDbEntity
  8
Predefinito
100
AcDbLine
 10
0.0
 20
18.0
 30
64.0932948863559
 11
0.0
 21
18.0
 31
73.093294886356
  0
LINE
  5
207
330
1E4
100
AcDbEntity
  8
Predefinito
100
AcDbLine
 10
-18.0
 20
0.0
 30
64.0932948863559
 11
-18.0
 21
0.0
 31
73.093294886356
  0
LINE
  5
208
330
1E4
100
AcDbEntity
  8
Predefinito
100
AcDbLine
 10
0.0
 20
-18.0
 30
64.0932948863559
 11
0.0
 21
-18.0
 31
73.093294886356
  0
LINE
  5
209
330
1E4
100
AcDbEntity
  8
Predefinito
100
AcDbLine
 10
0.0
 20
17.0
 30
74.093294886356
 11
0.0
 21
18.0
 31
73.093294886356
  0
LINE
  5
20A
330
1E4
100
AcDbEntity
  8
Predefinito
100
AcDbLine
 10
17.0
 20
0.0
 30
74.093294886356
 11
18.0
 21
0.0
 31
73.093294886356
  0
LINE
  5
20B
330
1E4
100
AcDbEntity
  8
Predefinito
100
AcDbLine
 10
0.0
 20
-17.0
 30
74.093294886356
 11
0.0
 21
-18.0
 31
73.093294886356
  0
LINE
  5
20C
330
1E4
100
AcDbEntity
  8
Predefinito
100
AcDbLine
 10
17.0
 20
-0.0000000000000018
 30
74.093294886356
 11
13.5
 21
-0.0000000000000018
 31
74.093294886356
  0
LINE
  5
20D
330
1E4
100
AcDbEntity
  8
Predefinito
100
AcDbLine
 10
-13.5
 20
-0.0000000000000018
 30
74.093294886356
 11
-17.0
 21
-0.0000000000000018
 31
74.093294886356
  0
LINE
  5
20E
330
1E4
100
AcDbEntity
  8
Predefinito
100
AcDbLine
 10
-0.0000000000000036
 20
-17.0
 30
74.093294886356
 11
-0.0000000000000036
 21
-13.5
 31
74.093294886356
  0
LINE
  5
20F
330
1E4
100
AcDbEntity
  8
Predefinito
100
AcDbLine
 10
-0.0000000000000036
 20
13.5
 30
74.093294886356
 11
-0.0000000000000036
 21
17.0
 31
74.093294886356
  0
CIRCLE
  5
210
330
1E4
100
AcDbEntity
  8
Predefinito
100
AcDbCircle
 10
0.0
 20
0.0
 30
39.09329488635595
 40
13.5
  0
LINE
  5
211
330
1E4
100
AcDbEntity
  8
Predefinito
100
AcDbLine
 10
0.0
 20
13.5
 30
4.093294886355903
 11
0.0
 21
13.5
 31
74.09329488635602
  0
LINE
  5
212
330
1E4
100
AcDbEntity
  8
Predefinito
100
AcDbLine
 10
-13.5
 20
0.0
 30
4.093294886355901
 11
-13.5
 21
0.0
 31
74.09329488635602
  0
LINE
  5
213
330
1E4
100
AcDbEntity
  8
Predefinito
100
AcDbLine
 10
0.0
 20
-13.5
 30
4.093294886355901
 11
0.0
 21
-13.5
 31
74.09329488635602
  0
LINE
  5
214
330
1E4
100
AcDbEntity
  8
Predefinito
100
AcDbLine
 10
-15.0
 20
0.0
 30
4.0932948863559
 11
-13.5
 21
0.0
 31
4.0932948863559
  0
LINE
  5
215
330
1E4
100
AcDbEntity
  8
Predefinito
100
AcDbLine
 10
13.5
 20
0.0
 30
4.0932948863559
 11
15.0
 21
0.0
 31
4.0932948863559
  0
LINE
  5
216
330
1E4
100
AcDbEntity
  8
Predefinito
100
AcDbLine
 10
0.0
 20
-15.0
 30
4.0932948863559
 11
0.0
 21
-13.5
 31
4.0932948863559
  0
LINE
  5
217
330
1E4
100
AcDbEntity
  8
Predefinito
100
AcDbLine
 10
0.0
 20
13.5
 30
4.0932948863559
 11
0.0
 21
15.0
 31
4.0932948863559
  0
ENDBLK
  5
219
330
1E4
100
AcDbEntity
  8
0
100
AcDbBlockEnd
  0
BLOCK
  5
24C
330
21B
100
AcDbEntity
  8
0
100
AcDbBlockBegin
  2
10CD03360YY
 70
     0
 10
0.0
 20
0.0
 30
0.0
  3
10CD03360YY
  1
10CD03360YY
  0
LINE
  5
21C
330
21B
100
AcDbEntity
  8
Predefinito
100
AcDbLine
 10
10.5429399400242
 20
-18.5
 30
-0.0000000000000001
 11
-10.8190200199896
 21
-18.5
 31
-0.0000000000000002
  0
LINE
  5
21D
330
21B
100
AcDbEntity
  8
Predefinito
100
AcDbLine
 10
-10.8190200199896
 20
18.5
 30
-0.0000000000000001
 11
10.5429399400204
 21
18.5
 31
-0.0000000000000001
  0
LINE
  5
21E
330
21B
100
AcDbEntity
  8
Predefinito
100
AcDbLine
 10
-10.8190200199896
 20
-18.5
 30
6.5
 11
10.5429399400242
 21
-18.5
 31
6.5
  0
LINE
  5
21F
330
21B
100
AcDbEntity
  8
Predefinito
100
AcDbLine
 10
10.5429399400204
 20
18.5
 30
6.5
 11
-10.8190200199896
 21
18.5
 31
6.5
  0
LINE
  5
220
330
21B
100
AcDbEntity
  8
Predefinito
100
AcDbLine
 10
-21.49999999999999
 20
-0.0000000000000041
 30
6.5
 11
-10.8190200199896
 21
-18.5
 31
6.5
  0
LINE
  5
221
330
21B
100
AcDbEntity
  8
Predefinito
100
AcDbLine
 10
-21.49999999999999
 20
-0.0000000000000041
 30
6.5
 11
-21.49999999999999
 21
-0.0000000000000041
 31
-0.0000000000000001
  0
LINE
  5
222
330
21B
100
AcDbEntity
  8
Predefinito
100
AcDbLine
 10
-10.8190200199896
 20
-18.5
 30
-0.0000000000000002
 11
-21.49999999999999
 21
-0.0000000000000041
 31
-0.0000000000000001
  0
LINE
  5
223
330
21B
100
AcDbEntity
  8
Predefinito
100
AcDbLine
 10
-10.8190200199896
 20
18.5
 30
6.5
 11
-21.49999999999999
 21
-0.0000000000000041
 31
6.5
  0
LINE
  5
224
330
21B
100
AcDbEntity
  8
Predefinito
100
AcDbLine
 10
-10.8190200199896
 20
18.5
 30
6.5
 11
-10.8190200199896
 21
18.5
 31
-0.0000000000000001
  0
LINE
  5
225
330
21B
100
AcDbEntity
  8
Predefinito
100
AcDbLine
 10
-21.49999999999999
 20
-0.0000000000000041
 30
-0.0000000000000001
 11
-10.8190200199896
 21
18.5
 31
-0.0000000000000001
  0
LINE
  5
226
330
21B
100
AcDbEntity
  8
Predefinito
100
AcDbLine
 10
10.5429399400204
 20
18.5
 30
6.5
 11
10.5429399400204
 21
18.5
 31
-0.0000000000000001
  0
LINE
  5
227
330
21B
100
AcDbEntity
  8
Predefinito
100
AcDbLine
 10
21.22391992003269
 20
-0.0000000000032965
 30
6.5
 11
10.5429399400204
 21
18.5
 31
6.5
  0
LINE
  5
228
330
21B
100
AcDbEntity
  8
Predefinito
100
AcDbLine
 10
21.22391992003269
 20
-0.0000000000032965
 30
6.5
 11
21.22391992003269
 21
-0.0000000000032965
 31
-0.0000000000000001
  0
LINE
  5
229
330
21B
100
AcDbEntity
  8
Predefinito
100
AcDbLine
 10
10.5429399400204
 20
18.5
 30
-0.0000000000000001
 11
21.22391992003269
 21
-0.0000000000032965
 31
-0.0000000000000001
  0
LINE
  5
22A
330
21B
100
AcDbEntity
  8
Predefinito
100
AcDbLine
 10
10.5429399400242
 20
-18.5
 30
6.5
 11
21.22391992003269
 21
-0.0000000000032965
 31
6.5
  0
LINE
  5
22B
330
21B
100
AcDbEntity
  8
Predefinito
100
AcDbLine
 10
10.5429399400242
 20
-18.5
 30
6.5
 11
10.5429399400242
 21
-18.5
 31
-0.0000000000000001
  0
LINE
  5
22C
330
21B
100
AcDbEntity
  8
Predefinito
100
AcDbLine
 10
21.22391992003269
 20
-0.0000000000032965
 30
-0.0000000000000001
 11
10.5429399400242
 21
-18.5
 31
-0.0000000000000001
  0
LINE
  5
22D
330
21B
100
AcDbEntity
  8
Predefinito
100
AcDbLine
 10
-10.8190200199896
 20
-18.5
 30
6.5
 11
-10.8190200199896
 21
-18.5
 31
-0.0000000000000002
  0
ARC
  5
22E
330
21B
100
AcDbEntity
  8
Predefinito
100
AcDbCircle
 10
0.0
 20
-0.0000000000000079
 30
-0.0000000000000001
 40
15.188
100
AcDbArc
 50
0.0
 51
180.0
  0
ARC
  5
22F
330
21B
100
AcDbEntity
  8
Predefinito
100
AcDbCircle
 10
0.0
 20
-0.0000000000000079
 30
-0.0000000000000001
 40
15.188
100
AcDbArc
 50
180.0
 51
0.0
  0
ARC
  5
230
330
21B
100
AcDbEntity
  8
Predefinito
100
AcDbCircle
 10
0.0000000000000027
 20
-0.0000000000000098
 30
6.5
 40
15.188
100
AcDbArc
 50
90.00000000000001
 51
180.0
  0
ARC
  5
231
330
21B
100
AcDbEntity
  8
Predefinito
100
AcDbCircle
 10
-0.0000000000000018
 20
-0.0000000000000089
 30
6.499999999999999
 40
15.188
100
AcDbArc
 50
180.0
 51
270.0
  0
LINE
  5
232
330
21B
100
AcDbEntity
  8
Predefinito
100
AcDbLine
 10
-15.188
 20
-0.0000000000000079
 30
6.499999999999999
 11
-15.188
 21
-0.0000000000000087
 31
-0.0000000000000006
  0
ARC
  5
233
330
21B
100
AcDbEntity
  8
Predefinito
100
AcDbCircle
 10
-0.0000000000000018
 20
-0.0000000000000071
 30
6.499999999999999
 40
15.188
100
AcDbArc
 50
270.0
 51
90.0
  0
LINE
  5
234
330
21B
100
AcDbEntity
  8
Predefinito
100
AcDbLine
 10
21.22391992003079
 20
0.0
 30
-0.0000000000000002
 11
15.188
 21
0.0
 31
-0.0000000000000002
  0
LINE
  5
235
330
21B
100
AcDbEntity
  8
Predefinito
100
AcDbLine
 10
-15.18800000000001
 20
0.0
 30
-0.0000000000000002
 11
-21.5
 21
0.0
 31
-0.0000000000000002
  0
LINE
  5
236
330
21B
100
AcDbEntity
  8
Predefinito
100
AcDbLine
 10
-0.1380400399836503
 20
-18.5
 30
-0.0000000000000002
 11
-0.1380400399836503
 21
-15.18737268086095
 31
-0.0000000000000002
  0
LINE
  5
237
330
21B
100
AcDbEntity
  8
Predefinito
100
AcDbLine
 10
-0.1380400399836503
 20
15.18737268086094
 30
-0.0000000000000002
 11
-0.1380400399836503
 21
18.5
 31
-0.0000000000000002
  0
LINE
  5
238
330
21B
100
AcDbEntity
  8
Predefinito
100
AcDbLine
 10
-21.5
 20
0.0
 30
6.5
 11
-15.188
 21
0.0
 31
6.5
  0
LINE
  5
239
330
21B
100
AcDbEntity
  8
Predefinito
100
AcDbLine
 10
15.18800000000001
 20
0.0
 30
6.5
 11
21.2239199200308
 21
0.0
 31
6.5
  0
LINE
  5
23A
330
21B
100
AcDbEntity
  8
Predefinito
100
AcDbLine
 10
-0.1380400399836486
 20
-18.5
 30
6.5
 11
-0.1380400399836486
 21
-15.18737268086095
 31
6.5
  0
LINE
  5
23B
330
21B
100
AcDbEntity
  8
Predefinito
100
AcDbLine
 10
-0.1380400399836486
 20
15.18737268086094
 30
6.5
 11
-0.1380400399836486
 21
18.5
 31
6.5
  0
LINE
  5
23C
330
21B
100
AcDbEntity
  8
Predefinito
100
AcDbLine
 10
-21.5
 20
0.0
 30
3.25
 11
-10.81902001998961
 21
-18.50000000000001
 31
3.25
  0
LINE
  5
23D
330
21B
100
AcDbEntity
  8
Predefinito
100
AcDbLine
 10
-16.1595100099948
 20
-9.250000000000005
 30
0.0
 11
-16.1595100099948
 21
-9.250000000000005
 31
6.5
  0
LINE
  5
23E
330
21B
100
AcDbEntity
  8
Predefinito
100
AcDbLine
 10
-10.8190200199896
 20
18.5
 30
3.25
 11
-21.49999999999999
 21
-0.0000000000000104
 31
3.25
  0
LINE
  5
23F
330
21B
100
AcDbEntity
  8
Predefinito
100
AcDbLine
 10
-16.15951000999479
 20
9.249999999999995
 30
0.0
 11
-16.15951000999479
 21
9.249999999999995
 31
6.5
  0
LINE
  5
240
330
21B
100
AcDbEntity
  8
Predefinito
100
AcDbLine
 10
10.5429399400204
 20
18.5
 30
3.25
 11
-10.8190200199896
 21
18.50000000000001
 31
3.25
  0
LINE
  5
241
330
21B
100
AcDbEntity
  8
Predefinito
100
AcDbLine
 10
-0.1380400399846007
 20
18.5
 30
0.0
 11
-0.1380400399846007
 21
18.5
 31
6.5
  0
LINE
  5
242
330
21B
100
AcDbEntity
  8
Predefinito
100
AcDbLine
 10
21.2239199200327
 20
-0.0000000000033025
 30
3.25
 11
10.54293994002039
 21
18.49999999999999
 31
3.25
  0
LINE
  5
243
330
21B
100
AcDbEntity
  8
Predefinito
100
AcDbLine
 10
15.88342993002654
 20
9.249999999998348
 30
0.0
 11
15.88342993002654
 21
9.249999999998348
 31
6.5
  0
LINE
  5
244
330
21B
100
AcDbEntity
  8
Predefinito
100
AcDbLine
 10
10.5429399400242
 20
-18.5
 30
3.25
 11
21.22391992003269
 21
-0.0000000000032843
 31
3.25
  0
LINE
  5
245
330
21B
100
AcDbEntity
  8
Predefinito
100
AcDbLine
 10
15.88342993002844
 20
-9.250000000001645
 30
0.0
 11
15.88342993002844
 21
-9.250000000001645
 31
6.5
  0
LINE
  5
246
330
21B
100
AcDbEntity
  8
Predefinito
100
AcDbLine
 10
-10.8190200199896
 20
-18.5
 30
3.25
 11
10.5429399400242
 21
-18.5
 31
3.25
  0
LINE
  5
247
330
21B
100
AcDbEntity
  8
Predefinito
100
AcDbLine
 10
-0.1380400399827
 20
-18.5
 30
0.0
 11
-0.1380400399827
 21
-18.5
 31
6.5
  0
CIRCLE
  5
248
330
21B
100
AcDbEntity
  8
Predefinito
100
AcDbCircle
 10
-0.0000000000000004
 20
-0.0000000000000079
 30
3.25
 40
15.188
  0
LINE
  5
249
330
21B
100
AcDbEntity
  8
Predefinito
100
AcDbLine
 10
-0.0000000000000004
 20
15.18799999999999
 30
6.5
 11
-0.0000000000000004
 21
15.18799999999999
 31
0.0000000000000002
  0
LINE
  5
24A
330
21B
100
AcDbEntity
  8
Predefinito
100
AcDbLine
 10
15.188
 20
-0.0000000000000079
 30
6.5
 11
15.188
 21
-0.0000000000000079
 31
0.0000000000000002
  0
LINE
  5
24B
330
21B
100
AcDbEntity
  8
Predefinito
100
AcDbLine
 10
-0.0000000000000004
 20
-15.18800000000001
 30
6.5
 11
-0.0000000000000004
 21
-15.18800000000001
 31
-0.0000000000000007
  0
ENDBLK
  5
24D
330
21B
100
AcDbEntity
  8
0
100
AcDbBlockEnd
  0
BLOCK
  5
2AE
330
24F
100
AcDbEntity
  8
0
100
AcDbBlockBegin
  2
10RO07360YY
 70
     0
 10
0.0
 20
0.0
 30
0.0
  3
10RO07360YY
  1
10RO07360YY
  0
ARC
  5
250
330
24F
100
AcDbEntity
  8
Predefinito
 62
     9
420
 12632256
100
AcDbCircle
 10
-0.0000000000000018
 20
0.0
 30
0.2883728092972861
 40
22.20323819176659
100
AcDbArc
 50
180.0
 51
0.0
  0
ARC
  5
251
330
24F
100
AcDbEntity
  8
Predefinito
 62
     9
420
 12632256
100
AcDbCircle
 10
0.0000000000000018
 20
0.0
 30
0.2883728092972861
 40
22.20323819176659
100
AcDbArc
 50
0.000000000000007
 51
180.0
  0
ARC
  5
252
330
24F
100
AcDbEntity
  8
Predefinito
 62
     9
420
 12632256
100
AcDbCircle
 10
0.0000000000000018
 20
0.0
 30
0.309977088405926
 40
19.70895411756117
100
AcDbArc
 50
0.0
 51
180.0
  0
ARC
  5
253
330
24F
100
AcDbEntity
  8
Predefinito
 62
     9
420
 12632256
100
AcDbCircle
 10
0.0000000000000018
 20
0.0
 30
0.3099770884059259
 40
19.70895411756117
100
AcDbArc
 50
180.0
 51
0.0
  0
ARC
  5
254
330
24F
100
AcDbEntity
  8
Predefinito
 62
     9
420
 12632256
100
AcDbCircle
 10
20.96659141169441
 20
1.510886403527619
 30
0.0
 40
1.738917694067445
210
0.0
220
1.0
230
0.0
100
AcDbArc
 50
223.6782039702688
 51
315.3292843333462
  0
ARC
  5
255
330
24F
100
AcDbEntity
  8
Predefinito
 62
     9
420
 12632256
100
AcDbCircle
 10
0.0000000000000036
 20
0.0
 30
0.2193072153819174
 40
24.23850012469158
100
AcDbArc
 50
180.0
 51
0.0
  0
ARC
  5
256
330
24F
100
AcDbEntity
  8
Predefinito
 62
     9
420
 12632256
100
AcDbCircle
 10
0.0000000000000036
 20
0.0
 30
0.2193072153819174
 40
24.23850012469158
100
AcDbArc
 50
0.0
 51
180.0
  0
ARC
  5
257
330
24F
100
AcDbEntity
  8
Predefinito
 62
     9
420
 12632256
100
AcDbCircle
 10
23.18897289087771
 20
-0.6860962867994908
 30
0.0
 40
1.386096286799497
210
0.0
220
1.0
230
0.0
100
AcDbArc
 50
40.78360013946053
 51
135.3292843333454
  0
ARC
  5
258
330
24F
100
AcDbEntity
  8
Predefinito
 62
     9
420
 12632256
100
AcDbCircle
 10
0.0
 20
0.0
 30
-0.099980011278104
 40
25.0
100
AcDbArc
 50
180.0
 51
0.0
  0
ARC
  5
259
330
24F
100
AcDbEntity
  8
Predefinito
 62
     9
420
 12632256
100
AcDbCircle
 10
0.0
 20
0.0
 30
-0.099980011278104
 40
25.0
100
AcDbArc
 50
0.000000000000007
 51
180.0
  0
ARC
  5
25A
330
24F
100
AcDbEntity
  8
Predefinito
 62
     9
420
 12632256
100
AcDbCircle
 10
24.86476263684449
 20
0.6452109689889657
 30
0.0
 40
0.7573630182842623
210
0.0
220
1.0
230
0.0
100
AcDbArc
 50
214.2185326075071
 51
280.2860967521534
  0
ARC
  5
25B
330
24F
100
AcDbEntity
  8
Predefinito
 62
     9
420
 12632256
100
AcDbCircle
 10
0.0
 20
0.0
 30
-0.6999800112781025
 40
25.0
100
AcDbArc
 50
180.0
 51
0.0
  0
ARC
  5
25C
330
24F
100
AcDbEntity
  8
Predefinito
 62
     9
420
 12632256
100
AcDbCircle
 10
0.0
 20
0.0
 30
-0.6999800112781025
 40
25.0
100
AcDbArc
 50
0.0
 51
180.0
  0
LINE
  5
25D
330
24F
100
AcDbEntity
  8
Predefinito
 62
     9
420
 12632256
100
AcDbLine
 10
-25.0
 20
0.0
 30
-0.099980011278104
 11
-25.0
 21
-0.0000000000000012
 31
-0.6999800112781025
  0
ARC
  5
25E
330
24F
100
AcDbEntity
  8
Predefinito
 62
     9
420
 12632256
100
AcDbCircle
 10
0.0000000000000018
 20
0.0
 30
-0.3234597175698704
 40
24.10600370015464
100
AcDbArc
 50
180.0
 51
0.0
  0
ARC
  5
25F
330
24F
100
AcDbEntity
  8
Predefinito
 62
     9
420
 12632256
100
AcDbCircle
 10
0.0000000000000018
 20
0.0
 30
-0.3234597175698704
 40
24.10600370015464
100
AcDbArc
 50
0.0
 51
180.0
  0
ARC
  5
260
330
24F
100
AcDbEntity
  8
Predefinito
 62
     9
420
 12632256
100
AcDbCircle
 10
0.0
 20
0.0
 30
-0.6999800112781025
 40
24.8221551497817
100
AcDbArc
 50
0.000000000000007
 51
180.0
  0
ARC
  5
261
330
24F
100
AcDbEntity
  8
Predefinito
 62
     9
420
 12632256
100
AcDbCircle
 10
0.0
 20
0.0
 30
-0.6999800112781025
 40
24.8221551497817
100
AcDbArc
 50
180.0
 51
0.0
  0
ARC
  5
262
330
24F
100
AcDbEntity
  8
Predefinito
 62
     9
420
 12632256
100
AcDbCircle
 10
24.8221551497817
 20
0.1693495325955133
 30
0.0000000000000635
 40
0.8693295438736147
210
-2.660372048430865E-15
220
1.0
230
1.830696502856926E-15
100
AcDbArc
 50
214.5332414579458
 51
270.0000000000002
  0
ARC
  5
263
330
24F
100
AcDbEntity
  8
Predefinito
 62
     9
420
 12632256
100
AcDbCircle
 10
0.0
 20
0.0
 30
-0.1385592982842691
 40
22.40409140601371
100
AcDbArc
 50
180.0
 51
0.0
  0
ARC
  5
264
330
24F
100
AcDbEntity
  8
Predefinito
 62
     9
420
 12632256
100
AcDbCircle
 10
0.0
 20
0.0
 30
-0.1385592982842691
 40
22.40409140601371
100
AcDbArc
 50
0.000000000000007
 51
180.0
  0
ARC
  5
265
330
24F
100
AcDbEntity
  8
Predefinito
 62
     9
420
 12632256
100
AcDbCircle
 10
23.17543319198119
 20
-0.9638183380793232
 30
0.0
 40
1.129610832783995
210
0.0
220
1.0
230
0.0
100
AcDbArc
 50
34.53324145794906
 51
133.0658549680034
  0
ARC
  5
266
330
24F
100
AcDbEntity
  8
Predefinito
 62
     9
420
 12632256
100
AcDbCircle
 10
0.0
 20
0.0
 30
-0.1509654972349828
 40
19.5716785632422
100
AcDbArc
 50
180.0
 51
0.0
  0
ARC
  5
267
330
24F
100
AcDbEntity
  8
Predefinito
 62
     9
420
 12632256
100
AcDbCircle
 10
0.0
 20
0.0
 30
-0.1509654972349828
 40
19.5716785632422
100
AcDbArc
 50
0.0
 51
180.0
  0
ARC
  5
268
330
24F
100
AcDbEntity
  8
Predefinito
 62
     9
420
 12632256
100
AcDbCircle
 10
20.98118973908872
 20
1.383804049238185
 30
0.0
 40
2.083804049237283
210
0.0
220
1.0
230
0.0
100
AcDbArc
 50
227.4360621842272
 51
313.0658549680008
  0
ARC
  5
269
330
24F
100
AcDbEntity
  8
Predefinito
 62
     9
420
 12632256
100
AcDbCircle
 10
0.0
 20
0.0
 30
-0.1001842464516313
 40
18.00430336852228
100
AcDbArc
 50
180.0
 51
0.0
  0
ARC
  5
26A
330
24F
100
AcDbEntity
  8
Predefinito
 62
     9
420
 12632256
100
AcDbCircle
 10
0.0
 20
0.0
 30
-0.1001842464516313
 40
18.00430336852228
100
AcDbArc
 50
0.000000000000007
 51
180.0
  0
ARC
  5
26B
330
24F
100
AcDbEntity
  8
Predefinito
 62
     9
420
 12632256
100
AcDbCircle
 10
18.75848025342768
 20
-1.036429921025161
 30
0.0
 40
1.202222415729826
210
0.0
220
1.0
230
0.0
100
AcDbArc
 50
47.43606218422668
 51
128.8525942179511
  0
ARC
  5
26C
330
24F
100
AcDbEntity
  8
Predefinito
 62
     9
420
 12632256
100
AcDbCircle
 10
0.0
 20
0.0
 30
-0.6999800112781036
 40
17.0
100
AcDbArc
 50
180.0
 51
0.0
  0
ARC
  5
26D
330
24F
100
AcDbEntity
  8
Predefinito
 62
     9
420
 12632256
100
AcDbCircle
 10
0.0
 20
0.0
 30
-0.6999800112781036
 40
17.0
100
AcDbArc
 50
0.0
 51
180.0
  0
ARC
  5
26E
330
24F
100
AcDbEntity
  8
Predefinito
 62
     9
420
 12632256
100
AcDbCircle
 10
16.23810095868302
 20
1.716455659707922
 30
0.0
 40
2.533703120172806
210
0.0
220
1.0
230
0.0
100
AcDbArc
 50
287.4999957049889
 51
314.1934714017754
  0
ARC
  5
26F
330
24F
100
AcDbEntity
  8
Predefinito
 62
     9
420
 12632256
100
AcDbCircle
 10
0.0
 20
0.0
 30
-0.1249999999999974
 40
17.0
100
AcDbArc
 50
180.0
 51
0.0
  0
ARC
  5
270
330
24F
100
AcDbEntity
  8
Predefinito
 62
     9
420
 12632256
100
AcDbCircle
 10
0.0
 20
0.0
 30
-0.1249999999999974
 40
17.0
100
AcDbArc
 50
0.000000000000007
 51
180.0
  0
LINE
  5
271
330
24F
100
AcDbEntity
  8
Predefinito
 62
     9
420
 12632256
100
AcDbLine
 10
-17.0
 20
-0.0000000000000008
 30
-0.1249999999999974
 11
-17.0
 21
0.0
 31
-0.6999800112781038
  0
ARC
  5
272
330
24F
100
AcDbEntity
  8
Predefinito
 62
     9
420
 12632256
100
AcDbCircle
 10
0.0000000000000036
 20
0.0
 30
0.1629206468159294
 40
17.76494668951072
100
AcDbArc
 50
180.0
 51
0.0
  0
ARC
  5
273
330
24F
100
AcDbEntity
  8
Predefinito
 62
     9
420
 12632256
100
AcDbCircle
 10
0.0000000000000018
 20
0.0
 30
0.1629206468159294
 40
17.76494668951072
100
AcDbArc
 50
0.000000000000007
 51
180.0
  0
ARC
  5
274
330
24F
100
AcDbEntity
  8
Predefinito
 62
     9
420
 12632256
100
AcDbCircle
 10
-0.0000000000000018
 20
0.0
 30
-0.124999999999998
 40
17.2115463762043
100
AcDbArc
 50
0.000000000000007
 51
180.0
  0
ARC
  5
275
330
24F
100
AcDbEntity
  8
Predefinito
 62
     9
420
 12632256
100
AcDbCircle
 10
-0.0000000000000018
 20
0.0
 30
-0.124999999999998
 40
17.2115463762043
100
AcDbArc
 50
180.0
 51
0.0
  0
ARC
  5
276
330
24F
100
AcDbEntity
  8
Predefinito
 62
     9
420
 12632256
100
AcDbCircle
 10
17.2115463762043
 20
0.5507941987386115
 30
-0.0000000000000423
 40
0.675794198738608
210
2.397965146541884E-15
220
1.0
230
1.680713285503685E-15
100
AcDbArc
 50
270.0000000000003
 51
324.9737144739388
  0
ARC
  5
277
330
24F
100
AcDbEntity
  8
Predefinito
 62
     9
420
 12632256
100
AcDbCircle
 10
18.79724460079068
 20
-0.5606081403259184
 30
0.0
 40
1.260608140325907
210
0.0
220
1.0
230
0.0
100
AcDbArc
 50
43.67820397026658
 51
144.97371447394
  0
CIRCLE
  5
278
330
24F
100
AcDbEntity
  8
Predefinito
 62
     9
420
 12632256
100
AcDbCircle
 10
0.0
 20
0.0
 30
-0.2280312905398301
 40
20.9665914116944
  0
ARC
  5
279
330
24F
100
AcDbEntity
  8
Predefinito
 62
     9
420
 12632256
100
AcDbCircle
 10
20.9665914116944
 20
1.51088640352763
 30
0.0
 40
1.73891769406746
210
1.0
220
0.0
230
0.0
100
AcDbArc
 50
223.6782039702695
 51
315.3292843333463
  0
ARC
  5
27A
330
24F
100
AcDbEntity
  8
Predefinito
 62
     9
420
 12632256
100
AcDbCircle
 10
-20.9665914116944
 20
1.51088640352763
 30
0.0
 40
1.73891769406746
210
0.0
220
1.0
230
0.0
100
AcDbArc
 50
224.6707156666536
 51
316.3217960297304
  0
ARC
  5
27B
330
24F
100
AcDbEntity
  8
Predefinito
 62
     9
420
 12632256
100
AcDbCircle
 10
-20.9665914116944
 20
1.51088640352763
 30
0.0
 40
1.73891769406746
210
1.0
220
0.0
230
0.0
100
AcDbArc
 50
224.6707156666536
 51
316.3217960297304
  0
CIRCLE
  5
27C
330
24F
100
AcDbEntity
  8
Predefinito
 62
     9
420
 12632256
100
AcDbCircle
 10
0.0
 20
0.0
 30
0.7
 40
23.1889728908777
  0
ARC
  5
27D
330
24F
100
AcDbEntity
  8
Predefinito
 62
     9
420
 12632256
100
AcDbCircle
 10
23.1889728908777
 20
-0.68609628679948
 30
0.0
 40
1.38609628679948
210
1.0
220
0.0
230
0.0
100
AcDbArc
 50
40.78360013945989
 51
135.3292843333455
  0
ARC
  5
27E
330
24F
100
AcDbEntity
  8
Predefinito
 62
     9
420
 12632256
100
AcDbCircle
 10
-23.1889728908777
 20
-0.68609628679948
 30
0.0
 40
1.38609628679948
210
0.0
220
1.0
230
0.0
100
AcDbArc
 50
44.67071566665452
 51
139.2163998605402
  0
ARC
  5
27F
330
24F
100
AcDbEntity
  8
Predefinito
 62
     9
420
 12632256
100
AcDbCircle
 10
-23.1889728908777
 20
-0.68609628679948
 30
0.0
 40
1.38609628679948
210
1.0
220
0.0
230
0.0
100
AcDbArc
 50
44.67071566665452
 51
139.2163998605402
  0
CIRCLE
  5
280
330
24F
100
AcDbEntity
  8
Predefinito
 62
     9
420
 12632256
100
AcDbCircle
 10
0.0
 20
0.0
 30
-0.112152049295299
 40
24.8647626368445
  0
ARC
  5
281
330
24F
100
AcDbEntity
  8
Predefinito
 62
     9
420
 12632256
100
AcDbCircle
 10
24.8647626368445
 20
0.645210968988931
 30
0.0
 40
0.75736301828423
210
1.0
220
0.0
230
0.0
100
AcDbArc
 50
214.2185326075046
 51
280.286096752153
  0
ARC
  5
282
330
24F
100
AcDbEntity
  8
Predefinito
 62
     9
420
 12632256
100
AcDbCircle
 10
-24.8647626368445
 20
0.645210968988931
 30
0.0
 40
0.75736301828423
210
0.0
220
1.0
230
0.0
100
AcDbArc
 50
259.713903247847
 51
325.7814673924954
  0
ARC
  5
283
330
24F
100
AcDbEntity
  8
Predefinito
 62
     9
420
 12632256
100
AcDbCircle
 10
-24.8647626368445
 20
0.645210968988931
 30
0.0
 40
0.75736301828423
210
1.0
220
0.0
230
0.0
100
AcDbArc
 50
259.713903247847
 51
325.7814673924954
  0
CIRCLE
  5
284
330
24F
100
AcDbEntity
  8
Predefinito
 62
     9
420
 12632256
100
AcDbCircle
 10
0.0
 20
0.0
 30
-0.3999800112781031
 40
25.0
  0
LINE
  5
285
330
24F
100
AcDbEntity
  8
Predefinito
 62
     9
420
 12632256
100
AcDbLine
 10
0.0
 20
25.0
 30
-0.0999800112781029
 11
0.0
 21
25.0
 31
-0.6999800112781028
  0
LINE
  5
286
330
24F
100
AcDbEntity
  8
Predefinito
 62
     9
420
 12632256
100
AcDbLine
 10
25.0
 20
0.0
 30
-0.0999800112781029
 11
25.0
 21
0.0
 31
-0.6999800112781028
  0
LINE
  5
287
330
24F
100
AcDbEntity
  8
Predefinito
 62
     9
420
 12632256
100
AcDbLine
 10
0.0
 20
-25.0
 30
-0.0999800112781029
 11
0.0
 21
-25.0
 31
-0.6999800112781028
  0
LINE
  5
288
330
24F
100
AcDbEntity
  8
Predefinito
 62
     9
420
 12632256
100
AcDbLine
 10
-25.0
 20
-0.0000000000000018
 30
-0.699980011278102
 11
-24.8221551497817
 21
-0.0000000000000018
 31
-0.699980011278102
  0
LINE
  5
289
330
24F
100
AcDbEntity
  8
Predefinito
 62
     9
420
 12632256
100
AcDbLine
 10
24.8221551497817
 20
-0.0000000000000018
 30
-0.699980011278102
 11
25.0
 21
-0.0000000000000018
 31
-0.699980011278102
  0
LINE
  5
28A
330
24F
100
AcDbEntity
  8
Predefinito
 62
     9
420
 12632256
100
AcDbLine
 10
0.0
 20
-25.0
 30
-0.699980011278102
 11
0.0
 21
-24.8221551497817
 31
-0.699980011278102
  0
LINE
  5
28B
330
24F
100
AcDbEntity
  8
Predefinito
 62
     9
420
 12632256
100
AcDbLine
 10
0.0
 20
24.8221551497817
 30
-0.699980011278102
 11
0.0
 21
25.0
 31
-0.699980011278102
  0
ARC
  5
28C
330
24F
100
AcDbEntity
  8
Predefinito
 62
     9
420
 12632256
100
AcDbCircle
 10
0.0
 20
0.0
 30
-0.6999800112781029
 40
24.8221551497817
100
AcDbArc
 50
0.000000000000007
 51
180.0
  0
ARC
  5
28D
330
24F
100
AcDbEntity
  8
Predefinito
 62
     9
420
 12632256
100
AcDbCircle
 10
24.8221551497817
 20
0.169349532595505
 30
0.0
 40
0.869329543873608
210
1.0
220
0.0
230
0.0
100
AcDbArc
 50
214.5332414579453
 51
270.0
  0
ARC
  5
28E
330
24F
100
AcDbEntity
  8
Predefinito
 62
     9
420
 12632256
100
AcDbCircle
 10
-24.8221551497817
 20
0.169349532595505
 30
0.0
 40
0.869329543873608
210
0.0
220
1.0
230
0.0
100
AcDbArc
 50
270.0
 51
325.4667585420547
  0
ARC
  5
28F
330
24F
100
AcDbEntity
  8
Predefinito
 62
     9
420
 12632256
100
AcDbCircle
 10
-24.8221551497817
 20
0.169349532595505
 30
0.0
 40
0.869329543873608
210
1.0
220
0.0
230
0.0
100
AcDbArc
 50
270.0
 51
325.4667585420547
  0
CIRCLE
  5
290
330
24F
100
AcDbEntity
  8
Predefinito
 62
     9
420
 12632256
100
AcDbCircle
 10
0.0
 20
0.0
 30
0.1657924947046667
 40
23.1754331919812
  0
ARC
  5
291
330
24F
100
AcDbEntity
  8
Predefinito
 62
     9
420
 12632256
100
AcDbCircle
 10
23.1754331919812
 20
-0.963818338079313
 30
0.0
 40
1.12961083278398
210
1.0
220
0.0
230
0.0
100
AcDbArc
 50
34.53324145794873
 51
133.0658549680038
  0
ARC
  5
292
330
24F
100
AcDbEntity
  8
Predefinito
 62
     9
420
 12632256
100
AcDbCircle
 10
-23.1754331919812
 20
-0.963818338079313
 30
0.0
 40
1.12961083278398
210
0.0
220
1.0
230
0.0
100
AcDbArc
 50
46.93414503199622
 51
145.4667585420513
  0
ARC
  5
293
330
24F
100
AcDbEntity
  8
Predefinito
 62
     9
420
 12632256
100
AcDbCircle
 10
-23.1754331919812
 20
-0.963818338079313
 30
0.0
 40
1.12961083278398
210
1.0
220
0.0
230
0.0
100
AcDbArc
 50
46.93414503199622
 51
145.4667585420513
  0
CIRCLE
  5
294
330
24F
100
AcDbEntity
  8
Predefinito
 62
     9
420
 12632256
100
AcDbCircle
 10
0.0
 20
0.0
 30
-0.6999999999990999
 40
20.9811897390887
  0
ARC
  5
295
330
24F
100
AcDbEntity
  8
Predefinito
 62
     9
420
 12632256
100
AcDbCircle
 10
20.9811897390887
 20
1.38380404923819
 30
0.0
 40
2.08380404923729
210
1.0
220
0.0
230
0.0
100
AcDbArc
 50
227.4360621842277
 51
313.0658549680012
  0
ARC
  5
296
330
24F
100
AcDbEntity
  8
Predefinito
 62
     9
420
 12632256
100
AcDbCircle
 10
-20.9811897390887
 20
1.38380404923819
 30
0.0
 40
2.08380404923729
210
0.0
220
1.0
230
0.0
100
AcDbArc
 50
226.9341450319988
 51
312.5639378157723
  0
ARC
  5
297
330
24F
100
AcDbEntity
  8
Predefinito
 62
     9
420
 12632256
100
AcDbCircle
 10
-20.9811897390887
 20
1.38380404923819
 30
0.0
 40
2.08380404923729
210
1.0
220
0.0
230
0.0
100
AcDbArc
 50
226.9341450319988
 51
312.5639378157723
  0
CIRCLE
  5
298
330
24F
100
AcDbEntity
  8
Predefinito
 62
     9
420
 12632256
100
AcDbCircle
 10
0.0
 20
0.0
 30
0.1657924947046698
 40
18.7584802534277
  0
ARC
  5
299
330
24F
100
AcDbEntity
  8
Predefinito
 62
     9
420
 12632256
100
AcDbCircle
 10
18.7584802534277
 20
-1.03642992102518
 30
0.0
 40
1.20222241572985
210
1.0
220
0.0
230
0.0
100
AcDbArc
 50
47.43606218422779
 51
128.8525942179511
  0
ARC
  5
29A
330
24F
100
AcDbEntity
  8
Predefinito
 62
     9
420
 12632256
100
AcDbCircle
 10
-18.7584802534277
 20
-1.03642992102518
 30
0.0
 40
1.20222241572985
210
0.0
220
1.0
230
0.0
100
AcDbArc
 50
51.14740578204898
 51
132.5639378157722
  0
ARC
  5
29B
330
24F
100
AcDbEntity
  8
Predefinito
 62
     9
420
 12632256
100
AcDbCircle
 10
-18.7584802534277
 20
-1.03642992102518
 30
0.0
 40
1.20222241572985
210
1.0
220
0.0
230
0.0
100
AcDbArc
 50
51.14740578204898
 51
132.5639378157722
  0
ARC
  5
29C
330
24F
100
AcDbEntity
  8
Predefinito
 62
     9
420
 12632256
100
AcDbCircle
 10
16.238100958683
 20
1.71645565970796
 30
0.0
 40
2.53370312017285
210
1.0
220
0.0
230
0.0
100
AcDbArc
 50
287.4999957049891
 51
314.1934714017751
  0
ARC
  5
29D
330
24F
100
AcDbEntity
  8
Predefinito
 62
     9
420
 12632256
100
AcDbCircle
 10
-16.238100958683
 20
1.71645565970796
 30
0.0
 40
2.53370312017285
210
0.0
220
1.0
230
0.0
100
AcDbArc
 50
225.8065285982249
 51
252.5000042950109
  0
ARC
  5
29E
330
24F
100
AcDbEntity
  8
Predefinito
 62
     9
420
 12632256
100
AcDbCircle
 10
-16.238100958683
 20
1.71645565970796
 30
0.0
 40
2.53370312017285
210
1.0
220
0.0
230
0.0
100
AcDbArc
 50
225.8065285982249
 51
252.5000042950109
  0
CIRCLE
  5
29F
330
24F
100
AcDbEntity
  8
Predefinito
 62
     9
420
 12632256
100
AcDbCircle
 10
0.0
 20
0.0
 30
-0.4124900056390501
 40
17.0
  0
LINE
  5
2A0
330
24F
100
AcDbEntity
  8
Predefinito
 62
     9
420
 12632256
100
AcDbLine
 10
0.0
 20
17.0
 30
-0.124999999999997
 11
0.0
 21
17.0
 31
-0.699980011278103
  0
LINE
  5
2A1
330
24F
100
AcDbEntity
  8
Predefinito
 62
     9
420
 12632256
100
AcDbLine
 10
17.0
 20
0.0
 30
-0.124999999999997
 11
17.0
 21
0.0
 31
-0.699980011278103
  0
LINE
  5
2A2
330
24F
100
AcDbEntity
  8
Predefinito
 62
     9
420
 12632256
100
AcDbLine
 10
0.0
 20
-17.0
 30
-0.124999999999997
 11
0.0
 21
-17.0
 31
-0.699980011278103
  0
LINE
  5
2A3
330
24F
100
AcDbEntity
  8
Predefinito
 62
     9
420
 12632256
100
AcDbLine
 10
17.2115463762043
 20
-0.0000000000000018
 30
-0.124999999999998
 11
17.0
 21
-0.0000000000000018
 31
-0.124999999999998
  0
LINE
  5
2A4
330
24F
100
AcDbEntity
  8
Predefinito
 62
     9
420
 12632256
100
AcDbLine
 10
-17.0
 20
-0.0000000000000018
 30
-0.124999999999998
 11
-17.2115463762043
 21
-0.0000000000000018
 31
-0.124999999999998
  0
LINE
  5
2A5
330
24F
100
AcDbEntity
  8
Predefinito
 62
     9
420
 12632256
100
AcDbLine
 10
0.0000000000000071
 20
-17.2115463762043
 30
-0.124999999999998
 11
0.0000000000000071
 21
-17.0
 31
-0.124999999999998
  0
LINE
  5
2A6
330
24F
100
AcDbEntity
  8
Predefinito
 62
     9
420
 12632256
100
AcDbLine
 10
0.0000000000000071
 20
17.0
 30
-0.124999999999998
 11
0.0000000000000071
 21
17.2115463762043
 31
-0.124999999999998
  0
ARC
  5
2A7
330
24F
100
AcDbEntity
  8
Predefinito
 62
     9
420
 12632256
100
AcDbCircle
 10
17.2115463762043
 20
0.550794198738625
 30
0.0
 40
0.675794198738623
210
1.0
220
0.0
230
0.0
100
AcDbArc
 50
270.0
 51
324.9737144739381
  0
ARC
  5
2A8
330
24F
100
AcDbEntity
  8
Predefinito
 62
     9
420
 12632256
100
AcDbCircle
 10
-17.2115463762043
 20
0.550794198738625
 30
0.0
 40
0.675794198738623
210
0.0
220
1.0
230
0.0
100
AcDbArc
 50
215.0262855260619
 51
270.0
  0
ARC
  5
2A9
330
24F
100
AcDbEntity
  8
Predefinito
 62
     9
420
 12632256
100
AcDbCircle
 10
-17.2115463762043
 20
0.550794198738625
 30
0.0
 40
0.675794198738623
210
1.0
220
0.0
230
0.0
100
AcDbArc
 50
215.0262855260619
 51
270.0
  0
CIRCLE
  5
2AA
330
24F
100
AcDbEntity
  8
Predefinito
 62
     9
420
 12632256
100
AcDbCircle
 10
0.0
 20
0.0
 30
0.6999999999999991
 40
18.7972446007907
  0
ARC
  5
2AB
330
24F
100
AcDbEntity
  8
Predefinito
 62
     9
420
 12632256
100
AcDbCircle
 10
18.7972446007907
 20
-0.560608140325931
 30
0.0
 40
1.26060814032593
210
1.0
220
0.0
230
0.0
100
AcDbArc
 50
43.67820397026748
 51
144.97371447394
  0
ARC
  5
2AC
330
24F
100
AcDbEntity
  8
Predefinito
 62
     9
420
 12632256
100
AcDbCircle
 10
-18.7972446007907
 20
-0.560608140325931
 30
0.0
 40
1.26060814032593
210
0.0
220
1.0
230
0.0
100
AcDbArc
 50
35.02628552606003
 51
136.3217960297325
  0
ARC
  5
2AD
330
24F
100
AcDbEntity
  8
Predefinito
 62
     9
420
 12632256
100
AcDbCircle
 10
-18.7972446007907
 20
-0.560608140325931
 30
0.0
 40
1.26060814032593
210
1.0
220
0.0
230
0.0
100
AcDbArc
 50
35.02628552606003
 51
136.3217960297325
  0
ENDBLK
  5
2AF
330
24F
100
AcDbEntity
  8
0
100
AcDbBlockEnd
  0
BLOCK
  5
2CC
330
2B1
100
AcDbEntity
  8
0
100
AcDbBlockBegin
  2
10AN16260YY
 70
     0
 10
0.0
 20
0.0
 30
0.0
  3
10AN16260YY
  1
10AN16260YY
  0
ARC
  5
2B2
330
2B1
100
AcDbEntity
  8
Predefinito
 62
   250
420
  3355443
100
AcDbCircle
 10
0.0
 20
0.0
 30
2.5
 40
17.0
100
AcDbArc
 50
0.000000000000007
 51
180.0
  0
ARC
  5
2B3
330
2B1
100
AcDbEntity
  8
Predefinito
 62
   250
420
  3355443
100
AcDbCircle
 10
0.0
 20
0.0
 30
2.5
 40
17.0
100
AcDbArc
 50
180.0
 51
0.0
  0
ARC
  5
2B4
330
2B1
100
AcDbEntity
  8
Predefinito
 62
   250
420
  3355443
100
AcDbCircle
 10
0.0
 20
0.0
 30
0.0000000000000001
 40
17.0
100
AcDbArc
 50
180.0
 51
0.0
  0
ARC
  5
2B5
330
2B1
100
AcDbEntity
  8
Predefinito
 62
   250
420
  3355443
100
AcDbCircle
 10
0.0
 20
0.0
 30
0.0000000000000001
 40
17.0
100
AcDbArc
 50
0.0
 51
180.0
  0
LINE
  5
2B6
330
2B1
100
AcDbEntity
  8
Predefinito
 62
   250
420
  3355443
100
AcDbLine
 10
-17.0
 20
-0.0000000000000008
 30
2.5
 11
-17.0
 21
-0.0000000000000008
 31
0.0000000000000003
  0
ARC
  5
2B7
330
2B1
100
AcDbEntity
  8
Predefinito
 62
   250
420
  3355443
100
AcDbCircle
 10
0.0000000000000036
 20
0.0
 30
2.5
 40
25.0
100
AcDbArc
 50
180.0
 51
0.0
  0
ARC
  5
2B8
330
2B1
100
AcDbEntity
  8
Predefinito
 62
   250
420
  3355443
100
AcDbCircle
 10
0.0000000000000036
 20
0.0
 30
2.5
 40
25.0
100
AcDbArc
 50
0.000000000000007
 51
180.0
  0
ARC
  5
2B9
330
2B1
100
AcDbEntity
  8
Predefinito
 62
   250
420
  3355443
100
AcDbCircle
 10
0.0000000000000036
 20
0.0
 30
0.0000000000000001
 40
25.0
100
AcDbArc
 50
0.0
 51
180.0
  0
ARC
  5
2BA
330
2B1
100
AcDbEntity
  8
Predefinito
 62
   250
420
  3355443
100
AcDbCircle
 10
0.0000000000000036
 20
0.0
 30
0.0000000000000001
 40
25.0
100
AcDbArc
 50
180.0
 51
0.0
  0
LINE
  5
2BB
330
2B1
100
AcDbEntity
  8
Predefinito
 62
   250
420
  3355443
100
AcDbLine
 10
-25.0
 20
-0.0000000000000012
 30
2.5
 11
-25.0
 21
-0.0000000000000012
 31
0.0000000000000003
  0
CIRCLE
  5
2BC
330
2B1
100
AcDbEntity
  8
Predefinito
 62
   250
420
  3355443
100
AcDbCircle
 10
0.0
 20
0.0
 30
1.25
 40
17.0
  0
LINE
  5
2BD
330
2B1
100
AcDbEntity
  8
Predefinito
 62
   250
420
  3355443
100
AcDbLine
 10
0.0
 20
17.0
 30
2.5
 11
0.0
 21
17.0
 31
-0.0000000000000002
  0
LINE
  5
2BE
330
2B1
100
AcDbEntity
  8
Predefinito
 62
   250
420
  3355443
100
AcDbLine
 10
17.0
 20
0.0
 30
2.5
 11
17.0
 21
0.0
 31
-0.0000000000000002
  0
LINE
  5
2BF
330
2B1
100
AcDbEntity
  8
Predefinito
 62
   250
420
  3355443
100
AcDbLine
 10
0.0
 20
-17.0
 30
2.5
 11
0.0
 21
-17.0
 31
-0.0000000000000002
  0
CIRCLE
  5
2C0
330
2B1
100
AcDbEntity
  8
Predefinito
 62
   250
420
  3355443
100
AcDbCircle
 10
0.0000000000000033
 20
0.0
 30
1.25
 40
25.0
  0
LINE
  5
2C1
330
2B1
100
AcDbEntity
  8
Predefinito
 62
   250
420
  3355443
100
AcDbLine
 10
0.0000000000000033
 20
25.0
 30
2.5
 11
0.0000000000000033
 21
25.0
 31
-0.0000000000000002
  0
LINE
  5
2C2
330
2B1
100
AcDbEntity
  8
Predefinito
 62
   250
420
  3355443
100
AcDbLine
 10
25.0
 20
0.0
 30
2.5
 11
25.0
 21
0.0
 31
-0.0000000000000002
  0
LINE
  5
2C3
330
2B1
100
AcDbEntity
  8
Predefinito
 62
   250
420
  3355443
100
AcDbLine
 10
0.0000000000000033
 20
-25.0
 30
2.5
 11
0.0000000000000033
 21
-25.0
 31
-0.0000000000000002
  0
LINE
  5
2C4
330
2B1
100
AcDbEntity
  8
Predefinito
 62
   250
420
  3355443
100
AcDbLine
 10
25.0
 20
0.0000000000000018
 30
2.5
 11
17.0
 21
0.0000000000000018
 31
2.5
  0
LINE
  5
2C5
330
2B1
100
AcDbEntity
  8
Predefinito
 62
   250
420
  3355443
100
AcDbLine
 10
-17.0
 20
0.0000000000000018
 30
2.5
 11
-25.0
 21
0.0000000000000018
 31
2.5
  0
LINE
  5
2C6
330
2B1
100
AcDbEntity
  8
Predefinito
 62
   250
420
  3355443
100
AcDbLine
 10
0.0000000000000015
 20
-25.0
 30
2.5
 11
0.0000000000000015
 21
-17.0
 31
2.5
  0
LINE
  5
2C7
330
2B1
100
AcDbEntity
  8
Predefinito
 62
   250
420
  3355443
100
AcDbLine
 10
0.0000000000000015
 20
17.0
 30
2.5
 11
0.0000000000000015
 21
25.0
 31
2.5
  0
LINE
  5
2C8
330
2B1
100
AcDbEntity
  8
Predefinito
 62
   250
420
  3355443
100
AcDbLine
 10
25.0
 20
0.0000000000000018
 30
0.0
 11
17.0
 21
0.0000000000000018
 31
0.0
  0
LINE
  5
2C9
330
2B1
100
AcDbEntity
  8
Predefinito
 62
   250
420
  3355443
100
AcDbLine
 10
-17.0
 20
0.0000000000000018
 30
0.0
 11
-25.0
 21
0.0000000000000018
 31
0.0
  0
LINE
  5
2CA
330
2B1
100
AcDbEntity
  8
Predefinito
 62
   250
420
  3355443
100
AcDbLine
 10
0.0000000000000015
 20
-25.0
 30
0.0
 11
0.0000000000000015
 21
-17.0
 31
0.0
  0
LINE
  5
2CB
330
2B1
100
AcDbEntity
  8
Predefinito
 62
   250
420
  3355443
100
AcDbLine
 10
0.0000000000000015
 20
17.0
 30
0.0
 11
0.0000000000000015
 21
25.0
 31
0.0
  0
ENDBLK
  5
2CD
330
2B1
100
AcDbEntity
  8
0
100
AcDbBlockEnd
  0
BLOCK
  5
2D8
330
2CF
100
AcDbEntity
  8
0
100
AcDbBlockBegin
  2
10OR15360YY
 70
     0
 10
0.0
 20
0.0
 30
0.0
  3
10OR15360YY
  1
10OR15360YY
  0
CIRCLE
  5
2D0
330
2CF
100
AcDbEntity
  8
Predefinito
 62
   250
420
  3355443
100
AcDbCircle
 10
0.0
 20
0.0
 30
0.0000000000000026
 40
19.395
  0
CIRCLE
  5
2D1
330
2CF
100
AcDbEntity
  8
Predefinito
 62
   250
420
  3355443
100
AcDbCircle
 10
18.085
 20
0.0000000000000026
 30
0.0
 40
1.31
210
0.0
220
1.0
230
0.0
  0
CIRCLE
  5
2D2
330
2CF
100
AcDbEntity
  8
Predefinito
 62
   250
420
  3355443
100
AcDbCircle
 10
0.0
 20
0.0
 30
-1.309999999999998
 40
18.085
  0
CIRCLE
  5
2D3
330
2CF
100
AcDbEntity
  8
Predefinito
 62
   250
420
  3355443
100
AcDbCircle
 10
0.0
 20
0.0
 30
0.0000000000000026
 40
16.775
  0
CIRCLE
  5
2D4
330
2CF
100
AcDbEntity
  8
Predefinito
 62
   250
420
  3355443
100
AcDbCircle
 10
0.0
 20
0.0
 30
1.310000000000003
 40
18.085
  0
CIRCLE
  5
2D5
330
2CF
100
AcDbEntity
  8
Predefinito
 62
   250
420
  3355443
100
AcDbCircle
 10
18.085
 20
0.0000000000000026
 30
0.0
 40
1.31
210
1.0
220
0.0
230
0.0
  0
CIRCLE
  5
2D6
330
2CF
100
AcDbEntity
  8
Predefinito
 62
   250
420
  3355443
100
AcDbCircle
 10
-18.085
 20
0.0000000000000026
 30
0.0
 40
1.31
210
0.0
220
1.0
230
0.0
  0
CIRCLE
  5
2D7
330
2CF
100
AcDbEntity
  8
Predefinito
 62
   250
420
  3355443
100
AcDbCircle
 10
-18.085
 20
0.0000000000000026
 30
0.0
 40
1.31
210
1.0
220
0.0
230
0.0
  0
ENDBLK
  5
2D9
330
2CF
100
AcDbEntity
  8
0
100
AcDbBlockEnd
  0
BLOCK
  5
2F8
330
2DE
100
AcDbEntity
  8
0
100
AcDbBlockBegin
  2
10AS03260YY
 70
     0
 10
0.0
 20
0.0
 30
0.0
  3
10AS03260YY
  1
10AS03260YY
  0
ARC
  5
2DF
330
2DE
100
AcDbEntity
  8
Predefinito
100
AcDbCircle
 10
0.0000000000000031
 20
0.0
 30
0.5000000000000021
 40
2.5
100
AcDbArc
 50
180.0
 51
0.0
  0
ARC
  5
2E0
330
2DE
100
AcDbEntity
  8
Predefinito
100
AcDbCircle
 10
0.0000000000000031
 20
0.0
 30
0.500000000000002
 40
2.5
100
AcDbArc
 50
0.0
 51
180.0
  0
ARC
  5
2E1
330
2DE
100
AcDbEntity
  8
Predefinito
100
AcDbCircle
 10
0.0000000000000033
 20
0.0
 30
299.5
 40
2.500000000000002
100
AcDbArc
 50
0.000000000000007
 51
180.0
  0
ARC
  5
2E2
330
2DE
100
AcDbEntity
  8
Predefinito
100
AcDbCircle
 10
0.0000000000000033
 20
0.0
 30
299.5
 40
2.500000000000002
100
AcDbArc
 50
180.0
 51
0.0
  0
LINE
  5
2E3
330
2DE
100
AcDbEntity
  8
Predefinito
100
AcDbLine
 10
-2.499999999999999
 20
0.0
 30
299.5
 11
-2.499999999999997
 21
0.0
 31
0.5000000000000128
  0
ARC
  5
2E4
330
2DE
100
AcDbEntity
  8
Predefinito
100
AcDbCircle
 10
0.0000000000000028
 20
0.0
 30
300.0
 40
2.000000000000002
100
AcDbArc
 50
0.000000000000007
 51
180.0
  0
ARC
  5
2E5
330
2DE
100
AcDbEntity
  8
Predefinito
100
AcDbCircle
 10
0.0000000000000029
 20
0.0
 30
300.0
 40
2.000000000000002
100
AcDbArc
 50
180.0
 51
0.0
  0
LINE
  5
2E6
330
2DE
100
AcDbEntity
  8
Predefinito
100
AcDbLine
 10
-1.999999999999999
 20
-0.0000000000000001
 30
300.0
 11
-2.499999999999999
 21
0.0
 31
299.5
  0
ARC
  5
2E7
330
2DE
100
AcDbEntity
  8
Predefinito
100
AcDbCircle
 10
0.0000000000000033
 20
0.0
 30
-0.0000000000000004
 40
2.0
100
AcDbArc
 50
180.0
 51
0.0
  0
ARC
  5
2E8
330
2DE
100
AcDbEntity
  8
Predefinito
100
AcDbCircle
 10
0.0000000000000033
 20
0.0
 30
-0.0000000000000004
 40
2.0
100
AcDbArc
 50
0.000000000000007
 51
180.0
  0
LINE
  5
2E9
330
2DE
100
AcDbEntity
  8
Predefinito
100
AcDbLine
 10
2.000000000000003
 20
0.0000000000000001
 30
-0.0000000000000004
 11
2.500000000000003
 21
0.0
 31
0.4999999999999914
  0
CIRCLE
  5
2EA
330
2DE
100
AcDbEntity
  8
Predefinito
100
AcDbCircle
 10
0.0000000000000033
 20
0.0
 30
150.0
 40
2.5
  0
LINE
  5
2EB
330
2DE
100
AcDbEntity
  8
Predefinito
100
AcDbLine
 10
0.0000000000000033
 20
2.5
 30
299.5000000000001
 11
0.0000000000000033
 21
2.5
 31
0.4999999999999822
  0
LINE
  5
2EC
330
2DE
100
AcDbEntity
  8
Predefinito
100
AcDbLine
 10
2.500000000000004
 20
0.0
 30
299.5000000000001
 11
2.500000000000004
 21
0.0
 31
0.4999999999999822
  0
LINE
  5
2ED
330
2DE
100
AcDbEntity
  8
Predefinito
100
AcDbLine
 10
0.0000000000000033
 20
-2.5
 30
299.5000000000001
 11
0.0000000000000033
 21
-2.5
 31
0.4999999999999822
  0
LINE
  5
2EE
330
2DE
100
AcDbEntity
  8
Predefinito
100
AcDbLine
 10
2.000000000000003
 20
0.0
 30
300.0
 11
-1.999999999999998
 21
0.0
 31
300.0
  0
LINE
  5
2EF
330
2DE
100
AcDbEntity
  8
Predefinito
100
AcDbLine
 10
0.0000000000000035
 20
-2.0
 30
300.0
 11
0.0000000000000035
 21
2.0
 31
300.0
  0
LINE
  5
2F0
330
2DE
100
AcDbEntity
  8
Predefinito
100
AcDbLine
 10
2.000000000000003
 20
0.0
 30
0.0
 11
-1.999999999999998
 21
0.0
 31
0.0
  0
LINE
  5
2F1
330
2DE
100
AcDbEntity
  8
Predefinito
100
AcDbLine
 10
0.0000000000000035
 20
-2.0
 30
0.0
 11
0.0000000000000035
 21
2.0
 31
0.0
  0
LINE
  5
2F2
330
2DE
100
AcDbEntity
  8
Predefinito
100
AcDbLine
 10
0.0000000000000033
 20
2.000000000000003
 30
300.0000000000001
 11
0.0000000000000033
 21
2.500000000000004
 31
299.5
  0
LINE
  5
2F3
330
2DE
100
AcDbEntity
  8
Predefinito
100
AcDbLine
 10
2.000000000000006
 20
0.0
 30
300.0
 11
2.500000000000008
 21
0.0
 31
299.5000000000001
  0
LINE
  5
2F4
330
2DE
100
AcDbEntity
  8
Predefinito
100
AcDbLine
 10
0.0000000000000033
 20
-2.000000000000003
 30
300.0000000000001
 11
0.0000000000000033
 21
-2.500000000000004
 31
299.5
  0
LINE
  5
2F5
330
2DE
100
AcDbEntity
  8
Predefinito
100
AcDbLine
 10
0.0000000000000033
 20
2.0
 30
-0.0000000000000009
 11
0.0000000000000033
 21
2.5
 31
0.4999999999999997
  0
LINE
  5
2F6
330
2DE
100
AcDbEntity
  8
Predefinito
100
AcDbLine
 10
-1.999999999999996
 20
0.0
 30
-0.0000000000000009
 11
-2.499999999999996
 21
0.0
 31
0.4999999999999997
  0
LINE
  5
2F7
330
2DE
100
AcDbEntity
  8
Predefinito
100
AcDbLine
 10
0.0000000000000033
 20
-2.0
 30
-0.0000000000000009
 11
0.0000000000000033
 21
-2.5
 31
0.4999999999999997
  0
ENDBLK
  5
2F9
330
2DE
100
AcDbEntity
  8
0
100
AcDbBlockEnd
  0
BLOCK
  5
31D
330
2FB
100
AcDbEntity
  8
0
100
AcDbBlockBegin
  2
10NI02960YY
 70
     0
 10
0.0
 20
0.0
 30
0.0
  3
10NI02960YY
  1
10NI02960YY
  0
ARC
  5
2FC
330
2FB
100
AcDbEntity
  8
Predefinito
100
AcDbCircle
 10
0.0000000000000031
 20
0.0
 30
15.0
 40
4.0
100
AcDbArc
 50
180.0
 51
0.0
  0
ARC
  5
2FD
330
2FB
100
AcDbEntity
  8
Predefinito
100
AcDbCircle
 10
0.0000000000000033
 20
0.0
 30
15.0
 40
4.0
100
AcDbArc
 50
0.000000000000007
 51
180.0
  0
ARC
  5
2FE
330
2FB
100
AcDbEntity
  8
Predefinito
100
AcDbCircle
 10
0.0000000000000031
 20
0.0
 30
-0.0000000000000002
 40
4.0
100
AcDbArc
 50
0.0
 51
180.0
  0
ARC
  5
2FF
330
2FB
100
AcDbEntity
  8
Predefinito
100
AcDbCircle
 10
0.0000000000000033
 20
0.0
 30
-0.0000000000000002
 40
4.0
100
AcDbArc
 50
180.0
 51
0.0
  0
LINE
  5
300
330
2FB
100
AcDbEntity
  8
Predefinito
100
AcDbLine
 10
-3.999999999999997
 20
-0.0000000000000002
 30
15.0
 11
-3.999999999999997
 21
-0.0000000000000002
 31
-0.0000000000000019
  0
ARC
  5
301
330
2FB
100
AcDbEntity
  8
Predefinito
100
AcDbCircle
 10
0.0000000000000043
 20
-0.0000000000000001
 30
14.1
 40
2.099999999999999
100
AcDbArc
 50
0.0000000000000059
 51
90.00000000000001
  0
ARC
  5
302
330
2FB
100
AcDbEntity
  8
Predefinito
100
AcDbCircle
 10
0.0000000000000036
 20
0.0
 30
-0.0000000000000001
 40
2.1
100
AcDbArc
 50
0.0
 51
180.0
  0
ARC
  5
303
330
2FB
100
AcDbEntity
  8
Predefinito
100
AcDbCircle
 10
0.0000000000000036
 20
0.0
 30
-0.0000000000000001
 40
2.1
100
AcDbArc
 50
180.0
 51
0.0
  0
LINE
  5
304
330
2FB
100
AcDbEntity
  8
Predefinito
100
AcDbLine
 10
2.100000000000004
 20
0.0000000000000001
 30
-0.0000000000000003
 11
2.100000000000004
 21
0.0
 31
14.1
  0
ARC
  5
305
330
2FB
100
AcDbEntity
  8
Predefinito
100
AcDbCircle
 10
0.0000000000000035
 20
0.0000000000000002
 30
15.0
 40
3.0
100
AcDbArc
 50
90.0
 51
270.0
  0
ARC
  5
306
330
2FB
100
AcDbEntity
  8
Predefinito
100
AcDbCircle
 10
0.0000000000000035
 20
0.0000000000000002
 30
15.0
 40
3.0
100
AcDbArc
 50
270.0
 51
90.0
  0
ARC
  5
307
330
2FB
100
AcDbEntity
  8
Predefinito
100
AcDbCircle
 10
0.0000000000000035
 20
0.0
 30
14.1
 40
2.1
100
AcDbArc
 50
270.0
 51
0.0
  0
ARC
  5
308
330
2FB
100
AcDbEntity
  8
Predefinito
100
AcDbCircle
 10
0.0000000000000035
 20
-0.0000000000000004
 30
14.1
 40
2.1
100
AcDbArc
 50
90.0
 51
270.0
  0
LINE
  5
309
330
2FB
100
AcDbEntity
  8
Predefinito
100
AcDbLine
 10
0.0000000000000035
 20
2.099999999999999
 30
14.1
 11
0.0000000000000033
 21
3.0
 31
15.0
  0
CIRCLE
  5
30A
330
2FB
100
AcDbEntity
  8
Predefinito
100
AcDbCircle
 10
0.0000000000000033
 20
0.0
 30
7.5
 40
4.0
  0
LINE
  5
30B
330
2FB
100
AcDbEntity
  8
Predefinito
100
AcDbLine
 10
0.0000000000000033
 20
4.0
 30
15.0
 11
0.0000000000000033
 21
4.0
 31
-0.0000000000000087
  0
LINE
  5
30C
330
2FB
100
AcDbEntity
  8
Predefinito
100
AcDbLine
 10
4.000000000000004
 20
0.0
 30
15.0
 11
4.000000000000004
 21
0.0
 31
-0.0000000000000047
  0
LINE
  5
30D
330
2FB
100
AcDbEntity
  8
Predefinito
100
AcDbLine
 10
0.0000000000000033
 20
-4.0
 30
15.0
 11
0.0000000000000033
 21
-4.0
 31
-0.0000000000000047
  0
LINE
  5
30E
330
2FB
100
AcDbEntity
  8
Predefinito
100
AcDbLine
 10
4.000000000000004
 20
0.0
 30
15.0
 11
3.000000000000004
 21
0.0
 31
15.0
  0
LINE
  5
30F
330
2FB
100
AcDbEntity
  8
Predefinito
100
AcDbLine
 10
-2.999999999999996
 20
0.0
 30
15.0
 11
-3.999999999999996
 21
0.0
 31
15.0
  0
LINE
  5
310
330
2FB
100
AcDbEntity
  8
Predefinito
100
AcDbLine
 10
0.0000000000000029
 20
-4.0
 30
15.0
 11
0.0000000000000029
 21
-3.0
 31
15.0
  0
LINE
  5
311
330
2FB
100
AcDbEntity
  8
Predefinito
100
AcDbLine
 10
0.0000000000000029
 20
3.0
 30
15.0
 11
0.0000000000000029
 21
4.0
 31
15.0
  0
LINE
  5
312
330
2FB
100
AcDbEntity
  8
Predefinito
100
AcDbLine
 10
4.000000000000004
 20
0.0
 30
0.0
 11
2.100000000000004
 21
0.0
 31
0.0
  0
LINE
  5
313
330
2FB
100
AcDbEntity
  8
Predefinito
100
AcDbLine
 10
-2.099999999999996
 20
0.0
 30
0.0
 11
-3.999999999999996
 21
0.0
 31
0.0
  0
LINE
  5
314
330
2FB
100
AcDbEntity
  8
Predefinito
100
AcDbLine
 10
0.0000000000000029
 20
-4.0
 30
0.0
 11
0.0000000000000029
 21
-2.100000000000001
 31
0.0
  0
LINE
  5
315
330
2FB
100
AcDbEntity
  8
Predefinito
100
AcDbLine
 10
0.0000000000000029
 20
2.099999999999999
 30
0.0
 11
0.0000000000000029
 21
4.0
 31
0.0
  0
CIRCLE
  5
316
330
2FB
100
AcDbEntity
  8
Predefinito
100
AcDbCircle
 10
0.0000000000000035
 20
0.0
 30
7.050000000000001
 40
2.1
  0
LINE
  5
317
330
2FB
100
AcDbEntity
  8
Predefinito
100
AcDbLine
 10
0.0000000000000035
 20
2.1
 30
0.0
 11
0.0000000000000035
 21
2.1
 31
14.1
  0
LINE
  5
318
330
2FB
100
AcDbEntity
  8
Predefinito
100
AcDbLine
 10
-2.099999999999997
 20
0.0
 30
0.0000000000000002
 11
-2.099999999999997
 21
0.0
 31
14.1
  0
LINE
  5
319
330
2FB
100
AcDbEntity
  8
Predefinito
100
AcDbLine
 10
0.0000000000000035
 20
-2.1
 30
0.0000000000000002
 11
0.0000000000000035
 21
-2.1
 31
14.1
  0
LINE
  5
31A
330
2FB
100
AcDbEntity
  8
Predefinito
100
AcDbLine
 10
-2.099999999999996
 20
0.0
 30
14.1
 11
-2.999999999999996
 21
0.0
 31
15.0
  0
LINE
  5
31B
330
2FB
100
AcDbEntity
  8
Predefinito
100
AcDbLine
 10
0.0000000000000035
 20
-2.1
 30
14.1
 11
0.0000000000000035
 21
-3.0
 31
15.0
  0
LINE
  5
31C
330
2FB
100
AcDbEntity
  8
Predefinito
100
AcDbLine
 10
2.100000000000003
 20
0.0
 30
14.1
 11
3.000000000000004
 21
0.0
 31
15.0
  0
ENDBLK
  5
31E
330
2FB
100
AcDbEntity
  8
0
100
AcDbBlockEnd
  0
ENDSEC
  0
SECTION
  2
ENTITIES
  0
INSERT
  5
322
330
1F
100
AcDbEntity
  8
Predefinito
100
AcDbBlockReference
  2
3100PL02-00
 10
0.0
 20
0.0
 30
0.0
  0
ENDSEC
  0
SECTION
  2
OBJECTS
  0
DICTIONARY
  5
C
330
0
100
AcDbDictionary
281
     1
  3
ACAD_DETAILVIEWSTYLE
350
35E
  3
ACAD_GROUP
350
D
  3
ACAD_LAYOUT
350
1A
  3
ACAD_MATERIAL
350
43
  3
ACAD_MLEADERSTYLE
350
35D
  3
ACAD_MLINESTYLE
350
17
  3
ACAD_PLOTSETTINGS
350
19
  3
ACAD_PLOTSTYLENAME
350
E
  3
ACAD_SCALELIST
350
47
  3
ACAD_SECTIONVIEWSTYLE
350
35F
  3
ACAD_TABLESTYLE
350
35C
  3
ACAD_VISUALSTYLE
350
2A
  3
AcDbVariableDictionary
350
323
  0
DICTIONARY
  5
35E
102
{ACAD_REACTORS
330
C
102
}
330
C
100
AcDbDictionary
281
     1
  0
DICTIONARY
  5
D
102
{ACAD_REACTORS
330
C
102
}
330
C
100
AcDbDictionary
281
     1
  0
DICTIONARY
  5
1A
102
{ACAD_REACTORS
330
C
102
}
330
C
100
AcDbDictionary
281
     1
  3
Layout1
350
1E
  3
Layout2
350
26
  3
Model
350
22
  0
DICTIONARY
  5
43
102
{ACAD_REACTORS
330
C
102
}
330
C
100
AcDbDictionary
281
     1
  3
ByBlock
350
45
  3
ByLayer
350
44
  3
Global
350
46
  0
DICTIONARY
  5
35D
102
{ACAD_REACTORS
330
C
102
}
330
C
100
AcDbDictionary
281
     1
  0
DICTIONARY
  5
17
102
{ACAD_REACTORS
330
C
102
}
330
C
100
AcDbDictionary
281
     1
  3
Standard
350
18
  0
DICTIONARY
  5
19
102
{ACAD_REACTORS
330
C
102
}
330
C
100
AcDbDictionary
281
     1
  0
ACDBDICTIONARYWDFLT
  5
E
102
{ACAD_REACTORS
330
C
102
}
330
C
100
AcDbDictionary
281
     1
  3
Normal
350
F
100
AcDbDictionaryWithDefault
340
F
  0
DICTIONARY
  5
47
102
{ACAD_REACTORS
330
C
102
}
330
C
100
AcDbDictionary
281
     1
  3
A0
350
48
  3
A1
350
49
  3
A2
350
4A
  3
A3
350
4B
  3
A4
350
4C
  3
A5
350
4D
  3
A6
350
4E
  3
A7
350
4F
  3
A8
350
50
  3
A9
350
51
  3
B0
350
52
  3
B1
350
53
  3
B2
350
54
  3
B3
350
55
  3
B4
350
56
  3
B5
350
57
  3
B6
350
58
  3
B7
350
59
  3
B8
350
5A
  3
B9
350
5B
  3
C0
350
5C
  3
C1
350
5D
  3
C2
350
5E
  3
C3
350
5F
  3
C4
350
60
  3
C5
350
61
  3
C6
350
62
  3
C7
350
63
  3
C8
350
64
  3
C9
350
65
  3
D0
350
66
  3
D1
350
67
  3
D2
350
68
  0
DICTIONARY
  5
35F
102
{ACAD_REACTORS
330
C
102
}
330
C
100
AcDbDictionary
281
     1
  0
DICTIONARY
  5
35C
102
{ACAD_REACTORS
330
C
102
}
330
C
100
AcDbDictionary
281
     1
  0
DICTIONARY
  5
2A
102
{ACAD_REACTORS
330
C
102
}
330
C
100
AcDbDictionary
281
     1
  3
2dWireframe
350
2F
  3
Basic
350
32
  3
Brighten
350
36
  3
ColorChange
350
3A
  3
Conceptual
350
34
  3
Dim
350
35
  3
EdgeColorOff
350
3D
  3
Facepattern
350
39
  3
Flat
350
2B
  3
FlatWithEdges
350
2C
  3
Gouraud
350
2D
  3
GouraudWithEdges
350
2E
  3
Hidden
350
31
  3
JitterOff
350
3B
  3
Linepattern
350
38
  3
OverhangOff
350
3C
  3
Realistic
350
33
  3
Shaded
350
42
  3
Shaded with edges
350
41
  3
Shades of Gray
350
3E
  3
Sketchy
350
3F
  3
Thicken
350
37
  3
Wireframe
350
30
  3
X-Ray
350
40
  0
DICTIONARY
  5
323
102
{ACAD_REACTORS
330
C
102
}
330
C
100
AcDbDictionary
281
     1
  3
CANNOSCALE
350
324
  3
MSLTSCALE
350
325
  0
LAYOUT
  5
1E
102
{ACAD_REACTORS
330
1A
102
}
330
1A
100
AcDbPlotSettings
  1

  2
none_device
  4

  6

 40
0.0
 41
0.0
 42
0.0
 43
0.0
 44
0.0
 45
0.0
 46
0.0
 47
0.0
 48
0.0
 49
0.0
140
0.0
141
0.0
142
1.0
143
1.0
 70
   688
 72
     0
 73
     0
 74
     5
  7

 75
    16
 76
     0
 77
     2
 78
   300
147
1.0
148
0.0
149
0.0
100
AcDbLayout
  1
Layout1
 70
     1
 71
     1
 10
0.0
 20
0.0
 11
12.0
 21
9.0
 12
0.0
 22
0.0
 32
0.0
 14
1.000000000000000E+20
 24
1.000000000000000E+20
 34
1.000000000000000E+20
 15
-1.000000000000000E+20
 25
-1.000000000000000E+20
 35
-1.000000000000000E+20
146
0.0
 13
0.0
 23
0.0
 33
0.0
 16
1.0
 26
0.0
 36
0.0
 17
0.0
 27
1.0
 37
0.0
 76
     0
330
1B
  0
LAYOUT
  5
26
102
{ACAD_REACTORS
330
1A
102
}
330
1A
100
AcDbPlotSettings
  1

  2
none_device
  4

  6

 40
0.0
 41
0.0
 42
0.0
 43
0.0
 44
0.0
 45
0.0
 46
0.0
 47
0.0
 48
0.0
 49
0.0
140
0.0
141
0.0
142
1.0
143
1.0
 70
   688
 72
     0
 73
     0
 74
     5
  7

 75
    16
 76
     0
 77
     2
 78
   300
147
1.0
148
0.0
149
0.0
100
AcDbLayout
  1
Layout2
 70
     1
 71
     2
 10
0.0
 20
0.0
 11
0.0
 21
0.0
 12
0.0
 22
0.0
 32
0.0
 14
0.0
 24
0.0
 34
0.0
 15
0.0
 25
0.0
 35
0.0
146
0.0
 13
0.0
 23
0.0
 33
0.0
 16
1.0
 26
0.0
 36
0.0
 17
0.0
 27
1.0
 37
0.0
 76
     0
330
23
  0
LAYOUT
  5
22
102
{ACAD_REACTORS
330
1A
102
}
330
1A
100
AcDbPlotSettings
  1

  2
none_device
  4
Letter_(8.50_x_11.00_Inches)
  6

 40
6.35
 41
6.35
 42
6.35000508
 43
6.35000508
 44
215.9
 45
279.4
 46
0.0
 47
0.0
 48
0.0
 49
0.0
140
0.0
141
0.0
142
1.0
143
1.0
 70
  1712
 72
     0
 73
     0
 74
     0
  7

 75
     0
 76
     0
 77
     2
 78
   300
147
1.0
148
0.0
149
0.0
100
AcDbLayout
  1
Model
 70
     1
 71
     0
 10
0.0
 20
0.0
 11
12.0
 21
9.0
 12
0.0
 22
0.0
 32
0.0
 14
-27.04389595224276
 24
-27.04389595224277
 34
-59.0000000000001
 15
27.04389595224278
 25
27.04389595224277
 35
308.0
146
0.0
 13
0.0
 23
0.0
 33
0.0
 16
1.0
 26
0.0
 36
0.0
 17
0.0
 27
1.0
 37
0.0
 76
     0
330
1F
331
29
  0
MATERIAL
  5
45
102
{ACAD_REACTORS
330
43
102
}
102
{ACAD_XDICTIONARY
360
358
102
}
330
43
100
AcDbMaterial
  1
ByBlock
  0
MATERIAL
  5
44
102
{ACAD_REACTORS
330
43
102
}
102
{ACAD_XDICTIONARY
360
356
102
}
330
43
100
AcDbMaterial
  1
ByLayer
  0
MATERIAL
  5
46
102
{ACAD_REACTORS
330
43
102
}
102
{ACAD_XDICTIONARY
360
35A
102
}
330
43
100
AcDbMaterial
  1
Global
  0
MLINESTYLE
  5
18
102
{ACAD_REACTORS
330
17
102
}
330
17
100
AcDbMlineStyle
  2
Standard
 70
     0
  3

 62
   256
 51
90.0
 52
90.0
 71
     2
 49
0.5
 62
   256
  6
BYLAYER
 49
-0.5
 62
   256
  6
BYLAYER
  0
ACDBPLACEHOLDER
  5
F
102
{ACAD_REACTORS
330
E
102
}
330
E
  0
SCALE
  5
48
102
{ACAD_REACTORS
330
47
102
}
330
47
100
AcDbScale
 70
     0
300
1:1
140
1.0
141
1.0
290
     1
  0
SCALE
  5
49
102
{ACAD_REACTORS
330
47
102
}
330
47
100
AcDbScale
 70
     0
300
1:2
140
1.0
141
2.0
290
     0
  0
SCALE
  5
4A
102
{ACAD_REACTORS
330
47
102
}
330
47
100
AcDbScale
 70
     0
300
1:4
140
1.0
141
4.0
290
     0
  0
SCALE
  5
4B
102
{ACAD_REACTORS
330
47
102
}
330
47
100
AcDbScale
 70
     0
300
1:5
140
1.0
141
5.0
290
     0
  0
SCALE
  5
4C
102
{ACAD_REACTORS
330
47
102
}
330
47
100
AcDbScale
 70
     0
300
1:8
140
1.0
141
8.0
290
     0
  0
SCALE
  5
4D
102
{ACAD_REACTORS
330
47
102
}
330
47
100
AcDbScale
 70
     0
300
1:10
140
1.0
141
10.0
290
     0
  0
SCALE
  5
4E
102
{ACAD_REACTORS
330
47
102
}
330
47
100
AcDbScale
 70
     0
300
1:16
140
1.0
141
16.0
290
     0
  0
SCALE
  5
4F
102
{ACAD_REACTORS
330
47
102
}
330
47
100
AcDbScale
 70
     0
300
1:20
140
1.0
141
20.0
290
     0
  0
SCALE
  5
50
102
{ACAD_REACTORS
330
47
102
}
330
47
100
AcDbScale
 70
     0
300
1:30
140
1.0
141
30.0
290
     0
  0
SCALE
  5
51
102
{ACAD_REACTORS
330
47
102
}
330
47
100
AcDbScale
 70
     0
300
1:40
140
1.0
141
40.0
290
     0
  0
SCALE
  5
52
102
{ACAD_REACTORS
330
47
102
}
330
47
100
AcDbScale
 70
     0
300
1:50
140
1.0
141
50.0
290
     0
  0
SCALE
  5
53
102
{ACAD_REACTORS
330
47
102
}
330
47
100
AcDbScale
 70
     0
300
1:100
140
1.0
141
100.0
290
     0
  0
SCALE
  5
54
102
{ACAD_REACTORS
330
47
102
}
330
47
100
AcDbScale
 70
     0
300
2:1
140
2.0
141
1.0
290
     0
  0
SCALE
  5
55
102
{ACAD_REACTORS
330
47
102
}
330
47
100
AcDbScale
 70
     0
300
4:1
140
4.0
141
1.0
290
     0
  0
SCALE
  5
56
102
{ACAD_REACTORS
330
47
102
}
330
47
100
AcDbScale
 70
     0
300
8:1
140
8.0
141
1.0
290
     0
  0
SCALE
  5
57
102
{ACAD_REACTORS
330
47
102
}
330
47
100
AcDbScale
 70
     0
300
10:1
140
10.0
141
1.0
290
     0
  0
SCALE
  5
58
102
{ACAD_REACTORS
330
47
102
}
330
47
100
AcDbScale
 70
     0
300
100:1
140
100.0
141
1.0
290
     0
  0
SCALE
  5
59
102
{ACAD_REACTORS
330
47
102
}
330
47
100
AcDbScale
 70
     0
300
1/128" = 1'-0"
140
0.0078125
141
12.0
290
     0
  0
SCALE
  5
5A
102
{ACAD_REACTORS
330
47
102
}
330
47
100
AcDbScale
 70
     0
300
1/64" = 1'-0"
140
0.015625
141
12.0
290
     0
  0
SCALE
  5
5B
102
{ACAD_REACTORS
330
47
102
}
330
47
100
AcDbScale
 70
     0
300
1/32" = 1'-0"
140
0.03125
141
12.0
290
     0
  0
SCALE
  5
5C
102
{ACAD_REACTORS
330
47
102
}
330
47
100
AcDbScale
 70
     0
300
1/16" = 1'-0"
140
0.0625
141
12.0
290
     0
  0
SCALE
  5
5D
102
{ACAD_REACTORS
330
47
102
}
330
47
100
AcDbScale
 70
     0
300
3/32" = 1'-0"
140
0.09375
141
12.0
290
     0
  0
SCALE
  5
5E
102
{ACAD_REACTORS
330
47
102
}
330
47
100
AcDbScale
 70
     0
300
1/8" = 1'-0"
140
0.125
141
12.0
290
     0
  0
SCALE
  5
5F
102
{ACAD_REACTORS
330
47
102
}
330
47
100
AcDbScale
 70
     0
300
3/16" = 1'-0"
140
0.1875
141
12.0
290
     0
  0
SCALE
  5
60
102
{ACAD_REACTORS
330
47
102
}
330
47
100
AcDbScale
 70
     0
300
1/4" = 1'-0"
140
0.25
141
12.0
290
     0
  0
SCALE
  5
61
102
{ACAD_REACTORS
330
47
102
}
330
47
100
AcDbScale
 70
     0
300
3/8" = 1'-0"
140
0.375
141
12.0
290
     0
  0
SCALE
  5
62
102
{ACAD_REACTORS
330
47
102
}
330
47
100
AcDbScale
 70
     0
300
1/2" = 1'-0"
140
0.5
141
12.0
290
     0
  0
SCALE
  5
63
102
{ACAD_REACTORS
330
47
102
}
330
47
100
AcDbScale
 70
     0
300
3/4" = 1'-0"
140
0.75
141
12.0
290
     0
  0
SCALE
  5
64
102
{ACAD_REACTORS
330
47
102
}
330
47
100
AcDbScale
 70
     0
300
1" = 1'-0"
140
1.0
141
12.0
290
     0
  0
SCALE
  5
65
102
{ACAD_REACTORS
330
47
102
}
330
47
100
AcDbScale
 70
     0
300
1-1/2" = 1'-0"
140
1.5
141
12.0
290
     0
  0
SCALE
  5
66
102
{ACAD_REACTORS
330
47
102
}
330
47
100
AcDbScale
 70
     0
300
3" = 1'-0"
140
3.0
141
12.0
290
     0
  0
SCALE
  5
67
102
{ACAD_REACTORS
330
47
102
}
330
47
100
AcDbScale
 70
     0
300
6" = 1'-0"
140
6.0
141
12.0
290
     0
  0
SCALE
  5
68
102
{ACAD_REACTORS
330
47
102
}
330
47
100
AcDbScale
 70
     0
300
1'-0" = 1'-0"
140
12.0
141
12.0
290
     0
  0
VISUALSTYLE
  5
2F
102
{ACAD_REACTORS
330
2A
102
}
102
{ACAD_XDICTIONARY
360
32E
102
}
330
2A
100
AcDbVisualStyle
  2
2dWireframe
 70
     4
 71
     0
 72
     2
 73
     0
 90
        0
 40
0.6
 41
30.0
 62
     5
 63
     7
421
 16777215
 74
     1
 91
        4
 64
     7
 65
   257
 75
     1
175
     1
 42
1.0
 92
        0
 66
   257
 43
1.0
 76
     1
 77
     6
 78
     2
 67
     7
 79
     5
170
     0
171
     0
290
     0
174
     0
 93
        1
 44
0.0
173
     0
291
     0
 45
0.0
1001
ACAD
1000
AcDbSavedByObjectVersion
1070
     0
  0
VISUALSTYLE
  5
32
102
{ACAD_REACTORS
330
2A
102
}
102
{ACAD_XDICTIONARY
360
334
102
}
330
2A
100
AcDbVisualStyle
  2
Basic
 70
     7
 71
     1
 72
     0
 73
     1
 90
        0
 40
0.6
 41
30.0
 62
     5
 63
     7
421
 16777215
 74
     0
 91
        4
 64
     7
 65
   257
 75
     1
175
     1
 42
1.0
 92
        8
 66
     7
 43
1.0
 76
     1
 77
     6
 78
     2
 67
     7
 79
     5
170
     0
171
     0
290
     0
174
     0
 93
        1
 44
0.0
173
     0
291
     1
 45
0.0
1001
ACAD
1000
AcDbSavedByObjectVersion
1070
     0
  0
VISUALSTYLE
  5
36
102
{ACAD_REACTORS
330
2A
102
}
102
{ACAD_XDICTIONARY
360
33C
102
}
330
2A
100
AcDbVisualStyle
  2
Brighten
 70
    12
 71
     2
 72
     2
 73
     0
 90
        0
 40
0.6
 41
30.0
 62
     5
 63
     7
421
 16777215
 74
     1
 91
        4
 64
     7
 65
   257
 75
     1
175
     1
 42
1.0
 92
        8
 66
     7
 43
1.0
 76
     1
 77
     6
 78
     2
 67
     7
 79
     5
170
     0
171
     0
290
     0
174
     0
 93
        1
 44
50.0
173
     0
291
     1
 45
0.0
1001
ACAD
1000
AcDbSavedByObjectVersion
1070
     0
  0
VISUALSTYLE
  5
3A
102
{ACAD_REACTORS
330
2A
102
}
102
{ACAD_XDICTIONARY
360
344
102
}
330
2A
100
AcDbVisualStyle
  2
ColorChange
 70
    16
 71
     2
 72
     2
 73
     3
 90
        0
 40
0.6
 41
30.0
 62
     5
 63
     8
421
  8421504
 74
     1
 91
        4
 64
     7
 65
   257
 75
     1
175
     1
 42
1.0
 92
        8
 66
     8
424
  8421504
 43
1.0
 76
     1
 77
     6
 78
     2
 67
     7
 79
     5
170
     0
171
     0
290
     0
174
     0
 93
        1
 44
0.0
173
     0
291
     1
 45
0.0
1001
ACAD
1000
AcDbSavedByObjectVersion
1070
     0
  0
VISUALSTYLE
  5
34
102
{ACAD_REACTORS
330
2A
102
}
102
{ACAD_XDICTIONARY
360
338
102
}
330
2A
100
AcDbVisualStyle
  2
Conceptual
 70
     9
 71
     3
 72
     2
 73
     0
 90
        0
 40
0.6
 41
30.0
 62
     5
 63
     7
421
 16777215
 74
     2
 91
        2
 64
     7
 65
   257
 75
     1
175
     1
 42
179.0
 92
        8
 66
     7
 43
1.0
 76
     1
 77
     6
 78
     2
 67
     7
 79
     3
170
     0
171
     0
290
     0
174
     0
 93
        1
 44
0.0
173
     0
291
     0
 45
0.0
1001
ACAD
1000
AcDbSavedByObjectVersion
1070
     0
  0
VISUALSTYLE
  5
35
102
{ACAD_REACTORS
330
2A
102
}
102
{ACAD_XDICTIONARY
360
33A
102
}
330
2A
100
AcDbVisualStyle
  2
Dim
 70
    11
 71
     2
 72
     2
 73
     0
 90
        0
 40
0.6
 41
30.0
 62
     5
 63
     7
421
 16777215
 74
     1
 91
        4
 64
     7
 65
   257
 75
     1
175
     1
 42
1.0
 92
        8
 66
     7
 43
1.0
 76
     1
 77
     6
 78
     2
 67
     7
 79
     5
170
     0
171
     0
290
     0
174
     0
 93
        1
 44
-50.0
173
     0
291
     1
 45
0.0
1001
ACAD
1000
AcDbSavedByObjectVersion
1070
     0
  0
VISUALSTYLE
  5
3D
102
{ACAD_REACTORS
330
2A
102
}
102
{ACAD_XDICTIONARY
360
34A
102
}
330
2A
100
AcDbVisualStyle
  2
EdgeColorOff
 70
    22
 71
     2
 72
     2
 73
     0
 90
        0
 40
0.6
 41
30.0
 62
     5
 63
     7
421
 16777215
 74
     1
 91
        4
 64
     7
 65
   257
 75
     1
175
     1
 42
1.0
 92
        8
 66
     7
 43
1.0
 76
     1
 77
     6
 78
     2
 67
     7
 79
     5
170
     0
171
     0
290
     0
174
     0
 93
        1
 44
0.0
173
     0
291
     1
 45
0.0
1001
ACAD
1000
AcDbSavedByObjectVersion
1070
     0
  0
VISUALSTYLE
  5
39
102
{ACAD_REACTORS
330
2A
102
}
102
{ACAD_XDICTIONARY
360
342
102
}
330
2A
100
AcDbVisualStyle
  2
Facepattern
 70
    15
 71
     2
 72
     2
 73
     0
 90
        0
 40
0.6
 41
30.0
 62
     5
 63
     7
421
 16777215
 74
     1
 91
        4
 64
     7
 65
   257
 75
     1
175
     1
 42
1.0
 92
        8
 66
     7
 43
1.0
 76
     1
 77
     6
 78
     2
 67
     7
 79
     5
170
     0
171
     0
290
     0
174
     0
 93
        1
 44
0.0
173
     0
291
     1
 45
0.0
1001
ACAD
1000
AcDbSavedByObjectVersion
1070
     0
  0
VISUALSTYLE
  5
2B
102
{ACAD_REACTORS
330
2A
102
}
102
{ACAD_XDICTIONARY
360
326
102
}
330
2A
100
AcDbVisualStyle
  2
Flat
 70
     0
 71
     2
 72
     1
 73
     1
 90
        2
 40
0.6
 41
30.0
 62
     5
 63
     7
421
 16777215
 74
     0
 91
        0
 64
     7
 65
   257
 75
     1
175
     1
 42
1.0
 92
        8
 66
     7
 43
1.0
 76
     1
 77
     6
 78
     2
 67
     7
 79
     5
170
     0
171
     0
290
     0
174
     0
 93
       13
 44
0.0
173
     0
291
     1
 45
0.0
1001
ACAD
1000
AcDbSavedByObjectVersion
1070
     0
  0
VISUALSTYLE
  5
2C
102
{ACAD_REACTORS
330
2A
102
}
102
{ACAD_XDICTIONARY
360
328
102
}
330
2A
100
AcDbVisualStyle
  2
FlatWithEdges
 70
     1
 71
     2
 72
     1
 73
     1
 90
        2
 40
0.6
 41
30.0
 62
     5
 63
     7
421
 16777215
 74
     1
 91
        0
 64
     7
 65
   257
 75
     1
175
     1
 42
1.0
 92
        0
 66
   257
 43
1.0
 76
     1
 77
     6
 78
     2
 67
     7
 79
     5
170
     0
171
     0
290
     0
174
     0
 93
       13
 44
0.0
173
     0
291
     1
 45
0.0
1001
ACAD
1000
AcDbSavedByObjectVersion
1070
     0
  0
VISUALSTYLE
  5
2D
102
{ACAD_REACTORS
330
2A
102
}
102
{ACAD_XDICTIONARY
360
32A
102
}
330
2A
100
AcDbVisualStyle
  2
Gouraud
 70
     2
 71
     2
 72
     2
 73
     1
 90
        2
 40
0.6
 41
30.0
 62
     5
 63
     7
421
 16777215
 74
     0
 91
        0
 64
     7
 65
   257
 75
     1
175
     1
 42
1.0
 92
        0
 66
     7
 43
1.0
 76
     1
 77
     6
 78
     2
 67
     7
 79
     5
170
     0
171
     0
290
     0
174
     0
 93
       13
 44
0.0
173
     0
291
     1
 45
0.0
1001
ACAD
1000
AcDbSavedByObjectVersion
1070
     0
  0
VISUALSTYLE
  5
2E
102
{ACAD_REACTORS
330
2A
102
}
102
{ACAD_XDICTIONARY
360
32C
102
}
330
2A
100
AcDbVisualStyle
  2
GouraudWithEdges
 70
     3
 71
     2
 72
     2
 73
     1
 90
        2
 40
0.6
 41
30.0
 62
     5
 63
     7
421
 16777215
 74
     1
 91
        0
 64
     7
 65
   257
 75
     1
175
     1
 42
1.0
 92
        0
 66
   257
 43
1.0
 76
     1
 77
     6
 78
     2
 67
     7
 79
     5
170
     0
171
     0
290
     0
174
     0
 93
       13
 44
0.0
173
     0
291
     1
 45
0.0
1001
ACAD
1000
AcDbSavedByObjectVersion
1070
     0
  0
VISUALSTYLE
  5
31
102
{ACAD_REACTORS
330
2A
102
}
102
{ACAD_XDICTIONARY
360
332
102
}
330
2A
100
AcDbVisualStyle
  2
Hidden
 70
     6
 71
     1
 72
     2
 73
     2
 90
        0
 40
0.6
 41
30.0
 62
     5
 63
     7
421
 16777215
 74
     2
 91
        2
 64
     7
 65
   257
 75
     2
175
     1
 42
40.0
 92
        0
 66
   257
 43
1.0
 76
     1
 77
     6
 78
     2
 67
     7
 79
     3
170
     0
171
     0
290
     0
174
     0
 93
        1
 44
0.0
173
     0
291
     0
 45
0.0
1001
ACAD
1000
AcDbSavedByObjectVersion
1070
     0
  0
VISUALSTYLE
  5
3B
102
{ACAD_REACTORS
330
2A
102
}
102
{ACAD_XDICTIONARY
360
346
102
}
330
2A
100
AcDbVisualStyle
  2
JitterOff
 70
    20
 71
     2
 72
     2
 73
     0
 90
        0
 40
0.6
 41
30.0
 62
     5
 63
     7
421
 16777215
 74
     1
 91
        4
 64
     7
 65
   257
 75
     1
175
     1
 42
1.0
 92
       10
 66
     7
 43
1.0
 76
     1
 77
     6
 78
     2
 67
     7
 79
     5
170
     0
171
     0
290
     0
174
     0
 93
        1
 44
0.0
173
     0
291
     1
 45
0.0
1001
ACAD
1000
AcDbSavedByObjectVersion
1070
     0
  0
VISUALSTYLE
  5
38
102
{ACAD_REACTORS
330
2A
102
}
102
{ACAD_XDICTIONARY
360
340
102
}
330
2A
100
AcDbVisualStyle
  2
Linepattern
 70
    14
 71
     2
 72
     2
 73
     0
 90
        0
 40
0.6
 41
30.0
 62
     5
 63
     7
421
 16777215
 74
     1
 91
        4
 64
     7
 65
   257
 75
     7
175
     7
 42
1.0
 92
        8
 66
     7
 43
1.0
 76
     1
 77
     6
 78
     2
 67
     7
 79
     5
170
     0
171
     0
290
     0
174
     0
 93
        1
 44
0.0
173
     0
291
     1
 45
0.0
1001
ACAD
1000
AcDbSavedByObjectVersion
1070
     0
  0
VISUALSTYLE
  5
3C
102
{ACAD_REACTORS
330
2A
102
}
102
{ACAD_XDICTIONARY
360
348
102
}
330
2A
100
AcDbVisualStyle
  2
OverhangOff
 70
    21
 71
     2
 72
     2
 73
     0
 90
        0
 40
0.6
 41
30.0
 62
     5
 63
     7
421
 16777215
 74
     1
 91
        4
 64
     7
 65
   257
 75
     1
175
     1
 42
1.0
 92
        9
 66
     7
 43
1.0
 76
     1
 77
     6
 78
     2
 67
     7
 79
     5
170
     0
171
     0
290
     0
174
     0
 93
        1
 44
0.0
173
     0
291
     1
 45
0.0
1001
ACAD
1000
AcDbSavedByObjectVersion
1070
     0
  0
VISUALSTYLE
  5
33
102
{ACAD_REACTORS
330
2A
102
}
102
{ACAD_XDICTIONARY
360
336
102
}
330
2A
100
AcDbVisualStyle
  2
Realistic
 70
     8
 71
     2
 72
     3
 73
     0
 90
        2
 40
0.6
 41
30.0
 62
     5
 63
     7
421
 16777215
 74
     0
 91
        0
 64
     7
 65
   257
 75
     1
175
     1
 42
1.0
 92
        8
 66
   257
 43
1.0
 76
     1
 77
     6
 78
     2
 67
     7
 79
     3
170
     0
171
     0
290
     0
174
     0
 93
       13
 44
0.0
173
     0
291
     0
 45
0.0
1001
ACAD
1000
AcDbSavedByObjectVersion
1070
     0
  0
VISUALSTYLE
  5
42
102
{ACAD_REACTORS
330
2A
102
}
102
{ACAD_XDICTIONARY
360
354
102
}
330
2A
100
AcDbVisualStyle
  2
Shaded
 70
    27
 71
     2
 72
     2
 73
     1
 90
        2
 40
0.6
 41
30.0
 62
     5
 63
     7
421
 16777215
 74
     0
 91
        4
 64
     7
 65
   257
 75
     1
175
     1
 42
1.0
 92
        8
 66
   257
 43
1.0
 76
     1
 77
     6
 78
     2
 67
     8
425
  7895160
 79
     3
170
     0
171
     0
290
     0
174
     0
 93
        5
 44
0.0
173
     0
291
     0
 45
0.0
1001
ACAD
1000
AcDbSavedByObjectVersion
1070
     0
  0
VISUALSTYLE
  5
41
102
{ACAD_REACTORS
330
2A
102
}
102
{ACAD_XDICTIONARY
360
352
102
}
330
2A
100
AcDbVisualStyle
  2
Shaded with edges
 70
    26
 71
     2
 72
     2
 73
     1
 90
        2
 40
0.6
 41
30.0
 62
     5
 63
     7
421
 16777215
 74
     1
 91
       10
 64
     7
 65
   257
 75
     2
175
     1
 42
1.0
 92
        8
 66
   257
 43
1.0
 76
     1
 77
     6
 78
     2
 67
     7
 79
     3
170
     0
171
     0
290
     0
174
     0
 93
        5
 44
0.0
173
     0
291
     0
 45
0.0
1001
ACAD
1000
AcDbSavedByObjectVersion
1070
     0
  0
VISUALSTYLE
  5
3E
102
{ACAD_REACTORS
330
2A
102
}
102
{ACAD_XDICTIONARY
360
34C
102
}
330
2A
100
AcDbVisualStyle
  2
Shades of Gray
 70
    23
 71
     2
 72
     2
 73
     3
 90
        0
 40
0.6
 41
30.0
 62
     5
 63
     7
421
 16777215
 74
     2
 91
        2
 64
     7
 65
     7
 75
     1
175
     1
 42
40.0
 92
        8
 66
     7
 43
1.0
 76
     1
 77
     6
 78
     2
 67
     7
 79
     3
170
     0
171
     0
290
     0
174
     0
 93
        1
 44
0.0
173
     0
291
     0
 45
0.0
1001
ACAD
1000
AcDbSavedByObjectVersion
1070
     0
  0
VISUALSTYLE
  5
3F
102
{ACAD_REACTORS
330
2A
102
}
102
{ACAD_XDICTIONARY
360
34E
102
}
330
2A
100
AcDbVisualStyle
  2
Sketchy
 70
    24
 71
     1
 72
     2
 73
     2
 90
        0
 40
0.6
 41
30.0
 62
     5
 63
     7
421
 16777215
 74
     2
 91
        2
 64
     7
 65
     7
 75
     1
175
     1
 42
40.0
 92
       11
 66
     7
 43
1.0
 76
     1
 77
     6
 78
     2
 67
     7
 79
     6
170
     0
171
     0
290
     0
174
     0
 93
        1
 44
0.0
173
     0
291
     0
 45
0.0
1001
ACAD
1000
AcDbSavedByObjectVersion
1070
     0
  0
VISUALSTYLE
  5
37
102
{ACAD_REACTORS
330
2A
102
}
102
{ACAD_XDICTIONARY
360
33E
102
}
330
2A
100
AcDbVisualStyle
  2
Thicken
 70
    13
 71
     2
 72
     2
 73
     0
 90
        0
 40
0.6
 41
30.0
 62
     5
 63
     7
421
 16777215
 74
     1
 91
        4
 64
     7
 65
   257
 75
     1
175
     1
 42
1.0
 92
       12
 66
     7
 43
1.0
 76
     1
 77
     6
 78
     2
 67
     7
 79
     5
170
     0
171
     0
290
     0
174
     0
 93
        1
 44
0.0
173
     0
291
     1
 45
0.0
1001
ACAD
1000
AcDbSavedByObjectVersion
1070
     0
  0
VISUALSTYLE
  5
30
102
{ACAD_REACTORS
330
2A
102
}
102
{ACAD_XDICTIONARY
360
330
102
}
330
2A
100
AcDbVisualStyle
  2
Wireframe
 70
     5
 71
     0
 72
     2
 73
     0
 90
        0
 40
0.6
 41
30.0
 62
     5
 63
     7
421
 16777215
 74
     1
 91
        4
 64
     7
 65
   257
 75
     1
175
     1
 42
1.0
 92
        0
 66
   257
 43
1.0
 76
     1
 77
     6
 78
     2
 67
     7
 79
     3
170
     0
171
     0
290
     0
174
     0
 93
        1
 44
0.0
173
     0
291
     0
 45
0.0
1001
ACAD
1000
AcDbSavedByObjectVersion
1070
     0
  0
VISUALSTYLE
  5
40
102
{ACAD_REACTORS
330
2A
102
}
102
{ACAD_XDICTIONARY
360
350
102
}
330
2A
100
AcDbVisualStyle
  2
X-Ray
 70
    25
 71
     2
 72
     2
 73
     1
 90
        1
 40
0.5
 41
30.0
 62
     5
 63
     7
421
 16777215
 74
     1
 91
        0
 64
     7
 65
   257
 75
     1
175
     1
 42
1.0
 92
        8
 66
     7
 43
1.0
 76
     1
 77
     6
 78
     2
 67
     7
 79
     3
170
     0
171
     0
290
     0
174
     0
 93
       13
 44
0.0
173
     0
291
     0
 45
0.0
1001
ACAD
1000
AcDbSavedByObjectVersion
1070
     0
  0
DICTIONARYVAR
  5
324
102
{ACAD_REACTORS
330
323
102
}
330
323
100
DictionaryVariables
280
     0
  1
1:1
  0
DICTIONARYVAR
  5
325
102
{ACAD_REACTORS
330
323
102
}
330
323
100
DictionaryVariables
280
     0
  1
1
  0
DICTIONARY
  5
358
330
45
100
AcDbDictionary
280
     1
281
     1
  3
ACAD_XREC_ROUNDTRIP
360
359
  0
DICTIONARY
  5
356
330
44
100
AcDbDictionary
280
     1
281
     1
  3
ACAD_XREC_ROUNDTRIP
360
357
  0
DICTIONARY
  5
35A
330
46
100
AcDbDictionary
280
     1
281
     1
  3
ACAD_XREC_ROUNDTRIP
360
35B
  0
DICTIONARY
  5
32E
330
2F
100
AcDbDictionary
280
     1
281
     1
  3
ACAD_XREC_ROUNDTRIP
360
32F
  0
DICTIONARY
  5
334
330
32
100
AcDbDictionary
280
     1
281
     1
  3
ACAD_XREC_ROUNDTRIP
360
335
  0
DICTIONARY
  5
33C
330
36
100
AcDbDictionary
280
     1
281
     1
  3
ACAD_XREC_ROUNDTRIP
360
33D
  0
DICTIONARY
  5
344
330
3A
100
AcDbDictionary
280
     1
281
     1
  3
ACAD_XREC_ROUNDTRIP
360
345
  0
DICTIONARY
  5
338
330
34
100
AcDbDictionary
280
     1
281
     1
  3
ACAD_XREC_ROUNDTRIP
360
339
  0
DICTIONARY
  5
33A
330
35
100
AcDbDictionary
280
     1
281
     1
  3
ACAD_XREC_ROUNDTRIP
360
33B
  0
DICTIONARY
  5
34A
330
3D
100
AcDbDictionary
280
     1
281
     1
  3
ACAD_XREC_ROUNDTRIP
360
34B
  0
DICTIONARY
  5
342
330
39
100
AcDbDictionary
280
     1
281
     1
  3
ACAD_XREC_ROUNDTRIP
360
343
  0
DICTIONARY
  5
326
330
2B
100
AcDbDictionary
280
     1
281
     1
  3
ACAD_XREC_ROUNDTRIP
360
327
  0
DICTIONARY
  5
328
330
2C
100
AcDbDictionary
280
     1
281
     1
  3
ACAD_XREC_ROUNDTRIP
360
329
  0
DICTIONARY
  5
32A
330
2D
100
AcDbDictionary
280
     1
281
     1
  3
ACAD_XREC_ROUNDTRIP
360
32B
  0
DICTIONARY
  5
32C
330
2E
100
AcDbDictionary
280
     1
281
     1
  3
ACAD_XREC_ROUNDTRIP
360
32D
  0
DICTIONARY
  5
332
330
31
100
AcDbDictionary
280
     1
281
     1
  3
ACAD_XREC_ROUNDTRIP
360
333
  0
DICTIONARY
  5
346
330
3B
100
AcDbDictionary
280
     1
281
     1
  3
ACAD_XREC_ROUNDTRIP
360
347
  0
DICTIONARY
  5
340
330
38
100
AcDbDictionary
280
     1
281
     1
  3
ACAD_XREC_ROUNDTRIP
360
341
  0
DICTIONARY
  5
348
330
3C
100
AcDbDictionary
280
     1
281
     1
  3
ACAD_XREC_ROUNDTRIP
360
349
  0
DICTIONARY
  5
336
330
33
100
AcDbDictionary
280
     1
281
     1
  3
ACAD_XREC_ROUNDTRIP
360
337
  0
DICTIONARY
  5
354
330
42
100
AcDbDictionary
280
     1
281
     1
  3
ACAD_XREC_ROUNDTRIP
360
355
  0
DICTIONARY
  5
352
330
41
100
AcDbDictionary
280
     1
281
     1
  3
ACAD_XREC_ROUNDTRIP
360
353
  0
DICTIONARY
  5
34C
330
3E
100
AcDbDictionary
280
     1
281
     1
  3
ACAD_XREC_ROUNDTRIP
360
34D
  0
DICTIONARY
  5
34E
330
3F
100
AcDbDictionary
280
     1
281
     1
  3
ACAD_XREC_ROUNDTRIP
360
34F
  0
DICTIONARY
  5
33E
330
37
100
AcDbDictionary
280
     1
281
     1
  3
ACAD_XREC_ROUNDTRIP
360
33F
  0
DICTIONARY
  5
330
330
30
100
AcDbDictionary
280
     1
281
     1
  3
ACAD_XREC_ROUNDTRIP
360
331
  0
DICTIONARY
  5
350
330
40
100
AcDbDictionary
280
     1
281
     1
  3
ACAD_XREC_ROUNDTRIP
360
351
  0
XRECORD
  5
359
102
{ACAD_REACTORS
330
358
102
}
330
358
100
AcDbXrecord
280
     1
102
MATERIAL
148
0.0
149
0.0
149
0.0
 93
        0
 94
      127
282
     0
 72
     1
 77
     1
171
     1
175
     1
179
     1
273
     0
  0
XRECORD
  5
357
102
{ACAD_REACTORS
330
356
102
}
330
356
100
AcDbXrecord
280
     1
102
MATERIAL
148
0.0
149
0.0
149
0.0
 93
        0
 94
      127
282
     0
 72
     1
 77
     1
171
     1
175
     1
179
     1
273
     0
  0
XRECORD
  5
35B
102
{ACAD_REACTORS
330
35A
102
}
330
35A
100
AcDbXrecord
280
     1
102
MATERIAL
148
0.0
149
0.0
149
0.0
 93
        0
 94
      127
282
     0
 72
     1
 77
     1
171
     1
175
     1
179
     1
273
     0
  0
XRECORD
  5
32F
102
{ACAD_REACTORS
330
32E
102
}
330
32E
100
AcDbXrecord
280
     1
102
RTVSPropertyOp0
 70
     1
102
RTVSPropertyOp1
 70
     1
102
RTVSPropertyOp2
 70
     1
102
RTVSPropertyOp3
 70
     1
102
RTVSPropertyOp4
 70
     1
102
RTVSPropertyOp5
 70
     1
102
RTVSPropertyOp6
 70
     1
102
RTVSPropertyOp7
 70
     1
102
RTVSPropertyOp8
 70
     1
102
RTVSPropertyOp9
 70
     1
102
RTVSPropertyOp10
 70
     1
102
RTVSPropertyOp11
 70
     1
102
RTVSPropertyOp12
 70
     1
102
RTVSPropertyOp13
 70
     1
102
RTVSPropertyOp14
 70
     1
102
RTVSPropertyOp15
 70
     1
102
RTVSPropertyOp16
 70
     1
102
RTVSPropertyOp17
 70
     1
102
RTVSPropertyOp18
 70
     1
102
RTVSPropertyOp19
 70
     1
102
RTVSPropertyOp20
 70
     1
102
RTVSPropertyOp21
 70
     1
102
RTVSPropertyOp22
 70
     1
102
RTVSPropertyOp23
 70
     1
102
RTVSPropertyOp24
 70
     1
102
RTVSPropertyOp25
 70
     1
102
RTVSPropertyOp26
 70
     1
102
RTVSPropertyOp27
 70
     1
102
RTVSPropertyOp28
 70
     1
102
RTVSPropertyOp29
 70
     1
102
RTVSPropertyOp30
 70
     1
102
RTVSPropertyOp31
 70
     1
102
RTVSPropertyOp32
 70
     1
102
RTVSPropertyOp33
 70
     1
102
RTVSPropertyOp34
 70
     1
102
RTVSPropertyOp35
 70
     1
102
RTVSPropertyOp36
 70
     1
102
RTVSPropertyOp37
 70
     1
102
RTVSPropertyOp38
 70
     1
102
RTVSPropertyOp39
 70
     1
102
RTVSPropertyOp40
 70
     1
102
RTVSPropertyOp41
 70
     1
102
RTVSPropertyOp42
 70
     1
102
RTVSPropertyOp43
 70
     1
102
RTVSPropertyOp44
 70
     1
102
RTVSPropertyOp45
 70
     1
102
RTVSPropertyOp46
 70
     1
102
RTVSPropertyOp47
 70
     1
102
RTVSPropertyOp48
 70
     1
102
RTVSPropertyOp49
 70
     1
102
RTVSPropertyOp50
 70
     1
102
RTVSPropertyOp51
 70
     0
102
RTVSPropertyOp52
 70
     0
102
RTVSPropertyOp53
 70
     1
102
RTVSPropertyOp54
 70
     1
102
RTVSPropertyOp55
 70
     1
102
RTVSPropertyOp56
 70
     1
102
RTVSPropertyOp57
 70
     1
102
RTVSPost2010Prop28
280
     1
102
RTVSPost2010PropOp28
 70
     1
102
RTVSPost2010Prop29
280
     1
102
RTVSPost2010PropOp29
 70
     1
102
RTVSPost2010Prop30
280
     0
102
RTVSPost2010PropOp30
 70
     1
102
RTVSPost2010Prop31
280
     0
102
RTVSPost2010PropOp31
 70
     1
102
RTVSPost2010Prop32
280
     0
102
RTVSPost2010PropOp32
 70
     1
102
RTVSPost2010Prop33
280
     0
102
RTVSPost2010PropOp33
 70
     1
102
RTVSPost2010Prop34
280
     0
102
RTVSPost2010PropOp34
 70
     1
102
RTVSPost2010Prop35
280
     0
102
RTVSPost2010PropOp35
 70
     1
102
RTVSPost2010Prop36
280
     0
102
RTVSPost2010PropOp36
 70
     1
102
RTVSPost2010Prop37
 90
       50
102
RTVSPost2010PropOp37
 70
     1
102
RTVSPost2010Prop38
140
0.0
102
RTVSPost2010PropOp38
 70
     1
102
RTVSPost2010Prop39
140
1.0
102
RTVSPost2010PropOp39
 70
     1
102
RTVSPost2010Prop40
 90
        0
102
RTVSPost2010PropOp40
 70
     1
102
RTVSPost2010Prop41ColorIndex
 90
       18
102
RTVSPost2010Prop41ColorRGB
 90
        0
102
RTVSPost2010PropOp41
 70
     1
102
RTVSPost2010Prop42
 90
       50
102
RTVSPost2010PropOp42
 70
     1
102
RTVSPost2010Prop43
 90
        3
102
RTVSPost2010PropOp43
 70
     1
102
RTVSPost2010Prop44ColorIndex
 90
        5
102
RTVSPost2010Prop44ColorRGB
 90
      255
102
RTVSPost2010PropOp44
 70
     1
102
RTVSPost2010Prop45
280
     0
102
RTVSPost2010PropOp45
 70
     1
102
RTVSPost2010Prop46
 90
       50
102
RTVSPost2010PropOp46
 70
     1
102
RTVSPost2010Prop47
 90
       50
102
RTVSPost2010PropOp47
 70
     1
102
RTVSPost2010Prop48
 90
       50
102
RTVSPost2010PropOp48
 70
     1
102
RTVSPost2010Prop49
280
     0
102
RTVSPost2010PropOp49
 70
     1
102
RTVSPost2010Prop50
 90
       50
102
RTVSPost2010PropOp50
 70
     1
102
RTVSPost2010Prop51ColorIndex
 90
      256
102
RTVSPost2010Prop51ColorRGB
 90
-16777216
102
RTVSPost2010PropOp51
 70
     0
102
RTVSPost2010Prop52
140
1.0
102
RTVSPost2010PropOp52
 70
     0
102
RTVSPost2010Prop53
 90
        2
102
RTVSPost2010PropOp53
 70
     1
102
RTVSPost2010Prop54
  1
strokes_ogs.tif
102
RTVSPost2010PropOp54
 70
     1
102
RTVSPost2010Prop55
280
     0
102
RTVSPost2010PropOp55
 70
     1
102
RTVSPost2010Prop56
140
1.0
102
RTVSPost2010PropOp56
 70
     1
102
RTVSPost2010Prop57
140
1.0
102
RTVSPost2010PropOp57
 70
     1
  0
XRECORD
  5
335
102
{ACAD_REACTORS
330
334
102
}
330
334
100
AcDbXrecord
280
     1
102
RTVSPropertyOp0
 70
     1
102
RTVSPropertyOp1
 70
     1
102
RTVSPropertyOp2
 70
     1
102
RTVSPropertyOp3
 70
     1
102
RTVSPropertyOp4
 70
     1
102
RTVSPropertyOp5
 70
     1
102
RTVSPropertyOp6
 70
     1
102
RTVSPropertyOp7
 70
     1
102
RTVSPropertyOp8
 70
     1
102
RTVSPropertyOp9
 70
     1
102
RTVSPropertyOp10
 70
     1
102
RTVSPropertyOp11
 70
     1
102
RTVSPropertyOp12
 70
     1
102
RTVSPropertyOp13
 70
     1
102
RTVSPropertyOp14
 70
     1
102
RTVSPropertyOp15
 70
     1
102
RTVSPropertyOp16
 70
     1
102
RTVSPropertyOp17
 70
     1
102
RTVSPropertyOp18
 70
     1
102
RTVSPropertyOp19
 70
     1
102
RTVSPropertyOp20
 70
     1
102
RTVSPropertyOp21
 70
     1
102
RTVSPropertyOp22
 70
     1
102
RTVSPropertyOp23
 70
     1
102
RTVSPropertyOp24
 70
     1
102
RTVSPropertyOp25
 70
     1
102
RTVSPropertyOp26
 70
     1
102
RTVSPropertyOp27
 70
     1
102
RTVSPropertyOp28
 70
     1
102
RTVSPropertyOp29
 70
     1
102
RTVSPropertyOp30
 70
     1
102
RTVSPropertyOp31
 70
     1
102
RTVSPropertyOp32
 70
     1
102
RTVSPropertyOp33
 70
     1
102
RTVSPropertyOp34
 70
     1
102
RTVSPropertyOp35
 70
     1
102
RTVSPropertyOp36
 70
     1
102
RTVSPropertyOp37
 70
     1
102
RTVSPropertyOp38
 70
     1
102
RTVSPropertyOp39
 70
     1
102
RTVSPropertyOp40
 70
     1
102
RTVSPropertyOp41
 70
     1
102
RTVSPropertyOp42
 70
     1
102
RTVSPropertyOp43
 70
     1
102
RTVSPropertyOp44
 70
     1
102
RTVSPropertyOp45
 70
     1
102
RTVSPropertyOp46
 70
     1
102
RTVSPropertyOp47
 70
     1
102
RTVSPropertyOp48
 70
     1
102
RTVSPropertyOp49
 70
     1
102
RTVSPropertyOp50
 70
     1
102
RTVSPropertyOp51
 70
     0
102
RTVSPropertyOp52
 70
     0
102
RTVSPropertyOp53
 70
     1
102
RTVSPropertyOp54
 70
     1
102
RTVSPropertyOp55
 70
     1
102
RTVSPropertyOp56
 70
     1
102
RTVSPropertyOp57
 70
     1
102
RTVSPost2010Prop28
280
     0
102
RTVSPost2010PropOp28
 70
     1
102
RTVSPost2010Prop29
280
     1
102
RTVSPost2010PropOp29
 70
     1
102
RTVSPost2010Prop30
280
     1
102
RTVSPost2010PropOp30
 70
     1
102
RTVSPost2010Prop31
280
     0
102
RTVSPost2010PropOp31
 70
     1
102
RTVSPost2010Prop32
280
     0
102
RTVSPost2010PropOp32
 70
     1
102
RTVSPost2010Prop33
280
     0
102
RTVSPost2010PropOp33
 70
     1
102
RTVSPost2010Prop34
280
     0
102
RTVSPost2010PropOp34
 70
     1
102
RTVSPost2010Prop35
280
     0
102
RTVSPost2010PropOp35
 70
     1
102
RTVSPost2010Prop36
280
     0
102
RTVSPost2010PropOp36
 70
     1
102
RTVSPost2010Prop37
 90
       50
102
RTVSPost2010PropOp37
 70
     1
102
RTVSPost2010Prop38
140
0.0
102
RTVSPost2010PropOp38
 70
     1
102
RTVSPost2010Prop39
140
1.0
102
RTVSPost2010PropOp39
 70
     1
102
RTVSPost2010Prop40
 90
        0
102
RTVSPost2010PropOp40
 70
     1
102
RTVSPost2010Prop41ColorIndex
 90
       18
102
RTVSPost2010Prop41ColorRGB
 90
        0
102
RTVSPost2010PropOp41
 70
     1
102
RTVSPost2010Prop42
 90
       50
102
RTVSPost2010PropOp42
 70
     1
102
RTVSPost2010Prop43
 90
        3
102
RTVSPost2010PropOp43
 70
     1
102
RTVSPost2010Prop44ColorIndex
 90
        5
102
RTVSPost2010Prop44ColorRGB
 90
      255
102
RTVSPost2010PropOp44
 70
     1
102
RTVSPost2010Prop45
280
     0
102
RTVSPost2010PropOp45
 70
     1
102
RTVSPost2010Prop46
 90
       50
102
RTVSPost2010PropOp46
 70
     1
102
RTVSPost2010Prop47
 90
       50
102
RTVSPost2010PropOp47
 70
     1
102
RTVSPost2010Prop48
 90
       50
102
RTVSPost2010PropOp48
 70
     1
102
RTVSPost2010Prop49
280
     0
102
RTVSPost2010PropOp49
 70
     1
102
RTVSPost2010Prop50
 90
       50
102
RTVSPost2010PropOp50
 70
     1
102
RTVSPost2010Prop51ColorIndex
 90
      256
102
RTVSPost2010Prop51ColorRGB
 90
-16777216
102
RTVSPost2010PropOp51
 70
     0
102
RTVSPost2010Prop52
140
1.0
102
RTVSPost2010PropOp52
 70
     0
102
RTVSPost2010Prop53
 90
        2
102
RTVSPost2010PropOp53
 70
     1
102
RTVSPost2010Prop54
  1
strokes_ogs.tif
102
RTVSPost2010PropOp54
 70
     1
102
RTVSPost2010Prop55
280
     0
102
RTVSPost2010PropOp55
 70
     1
102
RTVSPost2010Prop56
140
1.0
102
RTVSPost2010PropOp56
 70
     1
102
RTVSPost2010Prop57
140
1.0
102
RTVSPost2010PropOp57
 70
     1
  0
XRECORD
  5
33D
102
{ACAD_REACTORS
330
33C
102
}
330
33C
100
AcDbXrecord
280
     1
102
RTVSPropertyOp0
 70
     1
102
RTVSPropertyOp1
 70
     1
102
RTVSPropertyOp2
 70
     1
102
RTVSPropertyOp3
 70
     1
102
RTVSPropertyOp4
 70
     1
102
RTVSPropertyOp5
 70
     1
102
RTVSPropertyOp6
 70
     1
102
RTVSPropertyOp7
 70
     1
102
RTVSPropertyOp8
 70
     1
102
RTVSPropertyOp9
 70
     1
102
RTVSPropertyOp10
 70
     1
102
RTVSPropertyOp11
 70
     1
102
RTVSPropertyOp12
 70
     1
102
RTVSPropertyOp13
 70
     1
102
RTVSPropertyOp14
 70
     1
102
RTVSPropertyOp15
 70
     1
102
RTVSPropertyOp16
 70
     1
102
RTVSPropertyOp17
 70
     1
102
RTVSPropertyOp18
 70
     1
102
RTVSPropertyOp19
 70
     1
102
RTVSPropertyOp20
 70
     1
102
RTVSPropertyOp21
 70
     1
102
RTVSPropertyOp22
 70
     1
102
RTVSPropertyOp23
 70
     1
102
RTVSPropertyOp24
 70
     1
102
RTVSPropertyOp25
 70
     1
102
RTVSPropertyOp26
 70
     1
102
RTVSPropertyOp27
 70
     1
102
RTVSPropertyOp28
 70
     1
102
RTVSPropertyOp29
 70
     1
102
RTVSPropertyOp30
 70
     1
102
RTVSPropertyOp31
 70
     1
102
RTVSPropertyOp32
 70
     1
102
RTVSPropertyOp33
 70
     1
102
RTVSPropertyOp34
 70
     1
102
RTVSPropertyOp35
 70
     1
102
RTVSPropertyOp36
 70
     1
102
RTVSPropertyOp37
 70
     1
102
RTVSPropertyOp38
 70
     1
102
RTVSPropertyOp39
 70
     1
102
RTVSPropertyOp40
 70
     1
102
RTVSPropertyOp41
 70
     1
102
RTVSPropertyOp42
 70
     1
102
RTVSPropertyOp43
 70
     1
102
RTVSPropertyOp44
 70
     1
102
RTVSPropertyOp45
 70
     1
102
RTVSPropertyOp46
 70
     1
102
RTVSPropertyOp47
 70
     1
102
RTVSPropertyOp48
 70
     1
102
RTVSPropertyOp49
 70
     1
102
RTVSPropertyOp50
 70
     1
102
RTVSPropertyOp51
 70
     0
102
RTVSPropertyOp52
 70
     0
102
RTVSPropertyOp53
 70
     1
102
RTVSPropertyOp54
 70
     1
102
RTVSPropertyOp55
 70
     1
102
RTVSPropertyOp56
 70
     1
102
RTVSPropertyOp57
 70
     1
102
RTVSPost2010Prop28
280
     0
102
RTVSPost2010PropOp28
 70
     1
102
RTVSPost2010Prop29
280
     1
102
RTVSPost2010PropOp29
 70
     1
102
RTVSPost2010Prop30
280
     1
102
RTVSPost2010PropOp30
 70
     1
102
RTVSPost2010Prop31
280
     0
102
RTVSPost2010PropOp31
 70
     1
102
RTVSPost2010Prop32
280
     0
102
RTVSPost2010PropOp32
 70
     1
102
RTVSPost2010Prop33
280
     0
102
RTVSPost2010PropOp33
 70
     1
102
RTVSPost2010Prop34
280
     0
102
RTVSPost2010PropOp34
 70
     1
102
RTVSPost2010Prop35
280
     0
102
RTVSPost2010PropOp35
 70
     1
102
RTVSPost2010Prop36
280
     0
102
RTVSPost2010PropOp36
 70
     1
102
RTVSPost2010Prop37
 90
       50
102
RTVSPost2010PropOp37
 70
     1
102
RTVSPost2010Prop38
140
0.0
102
RTVSPost2010PropOp38
 70
     1
102
RTVSPost2010Prop39
140
1.0
102
RTVSPost2010PropOp39
 70
     1
102
RTVSPost2010Prop40
 90
        0
102
RTVSPost2010PropOp40
 70
     1
102
RTVSPost2010Prop41ColorIndex
 90
       18
102
RTVSPost2010Prop41ColorRGB
 90
        0
102
RTVSPost2010PropOp41
 70
     1
102
RTVSPost2010Prop42
 90
       50
102
RTVSPost2010PropOp42
 70
     1
102
RTVSPost2010Prop43
 90
        3
102
RTVSPost2010PropOp43
 70
     1
102
RTVSPost2010Prop44ColorIndex
 90
        5
102
RTVSPost2010Prop44ColorRGB
 90
      255
102
RTVSPost2010PropOp44
 70
     1
102
RTVSPost2010Prop45
280
     0
102
RTVSPost2010PropOp45
 70
     1
102
RTVSPost2010Prop46
 90
       50
102
RTVSPost2010PropOp46
 70
     1
102
RTVSPost2010Prop47
 90
       50
102
RTVSPost2010PropOp47
 70
     1
102
RTVSPost2010Prop48
 90
       50
102
RTVSPost2010PropOp48
 70
     1
102
RTVSPost2010Prop49
280
     0
102
RTVSPost2010PropOp49
 70
     1
102
RTVSPost2010Prop50
 90
       50
102
RTVSPost2010PropOp50
 70
     1
102
RTVSPost2010Prop51ColorIndex
 90
      256
102
RTVSPost2010Prop51ColorRGB
 90
-16777216
102
RTVSPost2010PropOp51
 70
     0
102
RTVSPost2010Prop52
140
1.0
102
RTVSPost2010PropOp52
 70
     0
102
RTVSPost2010Prop53
 90
        2
102
RTVSPost2010PropOp53
 70
     1
102
RTVSPost2010Prop54
  1
strokes_ogs.tif
102
RTVSPost2010PropOp54
 70
     1
102
RTVSPost2010Prop55
280
     0
102
RTVSPost2010PropOp55
 70
     1
102
RTVSPost2010Prop56
140
1.0
102
RTVSPost2010PropOp56
 70
     1
102
RTVSPost2010Prop57
140
1.0
102
RTVSPost2010PropOp57
 70
     1
  0
XRECORD
  5
345
102
{ACAD_REACTORS
330
344
102
}
330
344
100
AcDbXrecord
280
     1
102
RTVSPropertyOp0
 70
     1
102
RTVSPropertyOp1
 70
     1
102
RTVSPropertyOp2
 70
     1
102
RTVSPropertyOp3
 70
     1
102
RTVSPropertyOp4
 70
     1
102
RTVSPropertyOp5
 70
     1
102
RTVSPropertyOp6
 70
     1
102
RTVSPropertyOp7
 70
     1
102
RTVSPropertyOp8
 70
     1
102
RTVSPropertyOp9
 70
     1
102
RTVSPropertyOp10
 70
     1
102
RTVSPropertyOp11
 70
     1
102
RTVSPropertyOp12
 70
     1
102
RTVSPropertyOp13
 70
     1
102
RTVSPropertyOp14
 70
     1
102
RTVSPropertyOp15
 70
     1
102
RTVSPropertyOp16
 70
     1
102
RTVSPropertyOp17
 70
     1
102
RTVSPropertyOp18
 70
     1
102
RTVSPropertyOp19
 70
     1
102
RTVSPropertyOp20
 70
     1
102
RTVSPropertyOp21
 70
     1
102
RTVSPropertyOp22
 70
     1
102
RTVSPropertyOp23
 70
     1
102
RTVSPropertyOp24
 70
     1
102
RTVSPropertyOp25
 70
     1
102
RTVSPropertyOp26
 70
     1
102
RTVSPropertyOp27
 70
     1
102
RTVSPropertyOp28
 70
     1
102
RTVSPropertyOp29
 70
     1
102
RTVSPropertyOp30
 70
     1
102
RTVSPropertyOp31
 70
     1
102
RTVSPropertyOp32
 70
     1
102
RTVSPropertyOp33
 70
     1
102
RTVSPropertyOp34
 70
     1
102
RTVSPropertyOp35
 70
     1
102
RTVSPropertyOp36
 70
     1
102
RTVSPropertyOp37
 70
     1
102
RTVSPropertyOp38
 70
     1
102
RTVSPropertyOp39
 70
     1
102
RTVSPropertyOp40
 70
     1
102
RTVSPropertyOp41
 70
     1
102
RTVSPropertyOp42
 70
     1
102
RTVSPropertyOp43
 70
     1
102
RTVSPropertyOp44
 70
     1
102
RTVSPropertyOp45
 70
     1
102
RTVSPropertyOp46
 70
     1
102
RTVSPropertyOp47
 70
     1
102
RTVSPropertyOp48
 70
     1
102
RTVSPropertyOp49
 70
     1
102
RTVSPropertyOp50
 70
     1
102
RTVSPropertyOp51
 70
     0
102
RTVSPropertyOp52
 70
     0
102
RTVSPropertyOp53
 70
     1
102
RTVSPropertyOp54
 70
     1
102
RTVSPropertyOp55
 70
     1
102
RTVSPropertyOp56
 70
     1
102
RTVSPropertyOp57
 70
     1
102
RTVSPost2010Prop28
280
     0
102
RTVSPost2010PropOp28
 70
     1
102
RTVSPost2010Prop29
280
     1
102
RTVSPost2010PropOp29
 70
     1
102
RTVSPost2010Prop30
280
     1
102
RTVSPost2010PropOp30
 70
     1
102
RTVSPost2010Prop31
280
     0
102
RTVSPost2010PropOp31
 70
     1
102
RTVSPost2010Prop32
280
     0
102
RTVSPost2010PropOp32
 70
     1
102
RTVSPost2010Prop33
280
     0
102
RTVSPost2010PropOp33
 70
     1
102
RTVSPost2010Prop34
280
     0
102
RTVSPost2010PropOp34
 70
     1
102
RTVSPost2010Prop35
280
     0
102
RTVSPost2010PropOp35
 70
     1
102
RTVSPost2010Prop36
280
     0
102
RTVSPost2010PropOp36
 70
     1
102
RTVSPost2010Prop37
 90
       50
102
RTVSPost2010PropOp37
 70
     1
102
RTVSPost2010Prop38
140
0.0
102
RTVSPost2010PropOp38
 70
     1
102
RTVSPost2010Prop39
140
1.0
102
RTVSPost2010PropOp39
 70
     1
102
RTVSPost2010Prop40
 90
        0
102
RTVSPost2010PropOp40
 70
     1
102
RTVSPost2010Prop41ColorIndex
 90
       18
102
RTVSPost2010Prop41ColorRGB
 90
        0
102
RTVSPost2010PropOp41
 70
     1
102
RTVSPost2010Prop42
 90
       50
102
RTVSPost2010PropOp42
 70
     1
102
RTVSPost2010Prop43
 90
        3
102
RTVSPost2010PropOp43
 70
     1
102
RTVSPost2010Prop44ColorIndex
 90
        5
102
RTVSPost2010Prop44ColorRGB
 90
      255
102
RTVSPost2010PropOp44
 70
     1
102
RTVSPost2010Prop45
280
     0
102
RTVSPost2010PropOp45
 70
     1
102
RTVSPost2010Prop46
 90
       50
102
RTVSPost2010PropOp46
 70
     1
102
RTVSPost2010Prop47
 90
       50
102
RTVSPost2010PropOp47
 70
     1
102
RTVSPost2010Prop48
 90
       50
102
RTVSPost2010PropOp48
 70
     1
102
RTVSPost2010Prop49
280
     0
102
RTVSPost2010PropOp49
 70
     1
102
RTVSPost2010Prop50
 90
       50
102
RTVSPost2010PropOp50
 70
     1
102
RTVSPost2010Prop51ColorIndex
 90
      256
102
RTVSPost2010Prop51ColorRGB
 90
-16777216
102
RTVSPost2010PropOp51
 70
     0
102
RTVSPost2010Prop52
140
1.0
102
RTVSPost2010PropOp52
 70
     0
102
RTVSPost2010Prop53
 90
        2
102
RTVSPost2010PropOp53
 70
     1
102
RTVSPost2010Prop54
  1
strokes_ogs.tif
102
RTVSPost2010PropOp54
 70
     1
102
RTVSPost2010Prop55
280
     0
102
RTVSPost2010PropOp55
 70
     1
102
RTVSPost2010Prop56
140
1.0
102
RTVSPost2010PropOp56
 70
     1
102
RTVSPost2010Prop57
140
1.0
102
RTVSPost2010PropOp57
 70
     1
  0
XRECORD
  5
339
102
{ACAD_REACTORS
330
338
102
}
330
338
100
AcDbXrecord
280
     1
102
RTVSPropertyOp0
 70
     1
102
RTVSPropertyOp1
 70
     1
102
RTVSPropertyOp2
 70
     1
102
RTVSPropertyOp3
 70
     1
102
RTVSPropertyOp4
 70
     1
102
RTVSPropertyOp5
 70
     1
102
RTVSPropertyOp6
 70
     1
102
RTVSPropertyOp7
 70
     1
102
RTVSPropertyOp8
 70
     1
102
RTVSPropertyOp9
 70
     1
102
RTVSPropertyOp10
 70
     1
102
RTVSPropertyOp11
 70
     1
102
RTVSPropertyOp12
 70
     1
102
RTVSPropertyOp13
 70
     1
102
RTVSPropertyOp14
 70
     1
102
RTVSPropertyOp15
 70
     1
102
RTVSPropertyOp16
 70
     1
102
RTVSPropertyOp17
 70
     1
102
RTVSPropertyOp18
 70
     1
102
RTVSPropertyOp19
 70
     1
102
RTVSPropertyOp20
 70
     1
102
RTVSPropertyOp21
 70
     1
102
RTVSPropertyOp22
 70
     1
102
RTVSPropertyOp23
 70
     1
102
RTVSPropertyOp24
 70
     1
102
RTVSPropertyOp25
 70
     1
102
RTVSPropertyOp26
 70
     1
102
RTVSPropertyOp27
 70
     1
102
RTVSPropertyOp28
 70
     1
102
RTVSPropertyOp29
 70
     1
102
RTVSPropertyOp30
 70
     1
102
RTVSPropertyOp31
 70
     1
102
RTVSPropertyOp32
 70
     1
102
RTVSPropertyOp33
 70
     1
102
RTVSPropertyOp34
 70
     1
102
RTVSPropertyOp35
 70
     1
102
RTVSPropertyOp36
 70
     1
102
RTVSPropertyOp37
 70
     1
102
RTVSPropertyOp38
 70
     1
102
RTVSPropertyOp39
 70
     1
102
RTVSPropertyOp40
 70
     1
102
RTVSPropertyOp41
 70
     1
102
RTVSPropertyOp42
 70
     1
102
RTVSPropertyOp43
 70
     1
102
RTVSPropertyOp44
 70
     1
102
RTVSPropertyOp45
 70
     1
102
RTVSPropertyOp46
 70
     1
102
RTVSPropertyOp47
 70
     1
102
RTVSPropertyOp48
 70
     1
102
RTVSPropertyOp49
 70
     1
102
RTVSPropertyOp50
 70
     1
102
RTVSPropertyOp51
 70
     0
102
RTVSPropertyOp52
 70
     0
102
RTVSPropertyOp53
 70
     1
102
RTVSPropertyOp54
 70
     1
102
RTVSPropertyOp55
 70
     1
102
RTVSPropertyOp56
 70
     1
102
RTVSPropertyOp57
 70
     1
102
RTVSPost2010Prop28
280
     0
102
RTVSPost2010PropOp28
 70
     1
102
RTVSPost2010Prop29
280
     1
102
RTVSPost2010PropOp29
 70
     1
102
RTVSPost2010Prop30
280
     1
102
RTVSPost2010PropOp30
 70
     1
102
RTVSPost2010Prop31
280
     0
102
RTVSPost2010PropOp31
 70
     1
102
RTVSPost2010Prop32
280
     0
102
RTVSPost2010PropOp32
 70
     1
102
RTVSPost2010Prop33
280
     0
102
RTVSPost2010PropOp33
 70
     1
102
RTVSPost2010Prop34
280
     0
102
RTVSPost2010PropOp34
 70
     1
102
RTVSPost2010Prop35
280
     0
102
RTVSPost2010PropOp35
 70
     1
102
RTVSPost2010Prop36
280
     0
102
RTVSPost2010PropOp36
 70
     1
102
RTVSPost2010Prop37
 90
       50
102
RTVSPost2010PropOp37
 70
     1
102
RTVSPost2010Prop38
140
0.0
102
RTVSPost2010PropOp38
 70
     1
102
RTVSPost2010Prop39
140
1.0
102
RTVSPost2010PropOp39
 70
     1
102
RTVSPost2010Prop40
 90
        0
102
RTVSPost2010PropOp40
 70
     1
102
RTVSPost2010Prop41ColorIndex
 90
       18
102
RTVSPost2010Prop41ColorRGB
 90
        0
102
RTVSPost2010PropOp41
 70
     1
102
RTVSPost2010Prop42
 90
       50
102
RTVSPost2010PropOp42
 70
     1
102
RTVSPost2010Prop43
 90
        3
102
RTVSPost2010PropOp43
 70
     1
102
RTVSPost2010Prop44ColorIndex
 90
        5
102
RTVSPost2010Prop44ColorRGB
 90
      255
102
RTVSPost2010PropOp44
 70
     1
102
RTVSPost2010Prop45
280
     0
102
RTVSPost2010PropOp45
 70
     1
102
RTVSPost2010Prop46
 90
       50
102
RTVSPost2010PropOp46
 70
     1
102
RTVSPost2010Prop47
 90
       50
102
RTVSPost2010PropOp47
 70
     1
102
RTVSPost2010Prop48
 90
       50
102
RTVSPost2010PropOp48
 70
     1
102
RTVSPost2010Prop49
280
     0
102
RTVSPost2010PropOp49
 70
     1
102
RTVSPost2010Prop50
 90
       50
102
RTVSPost2010PropOp50
 70
     1
102
RTVSPost2010Prop51ColorIndex
 90
      256
102
RTVSPost2010Prop51ColorRGB
 90
-16777216
102
RTVSPost2010PropOp51
 70
     0
102
RTVSPost2010Prop52
140
1.0
102
RTVSPost2010PropOp52
 70
     0
102
RTVSPost2010Prop53
 90
        2
102
RTVSPost2010PropOp53
 70
     1
102
RTVSPost2010Prop54
  1
strokes_ogs.tif
102
RTVSPost2010PropOp54
 70
     1
102
RTVSPost2010Prop55
280
     0
102
RTVSPost2010PropOp55
 70
     1
102
RTVSPost2010Prop56
140
1.0
102
RTVSPost2010PropOp56
 70
     1
102
RTVSPost2010Prop57
140
1.0
102
RTVSPost2010PropOp57
 70
     1
  0
XRECORD
  5
33B
102
{ACAD_REACTORS
330
33A
102
}
330
33A
100
AcDbXrecord
280
     1
102
RTVSPropertyOp0
 70
     1
102
RTVSPropertyOp1
 70
     1
102
RTVSPropertyOp2
 70
     1
102
RTVSPropertyOp3
 70
     1
102
RTVSPropertyOp4
 70
     1
102
RTVSPropertyOp5
 70
     1
102
RTVSPropertyOp6
 70
     1
102
RTVSPropertyOp7
 70
     1
102
RTVSPropertyOp8
 70
     1
102
RTVSPropertyOp9
 70
     1
102
RTVSPropertyOp10
 70
     1
102
RTVSPropertyOp11
 70
     1
102
RTVSPropertyOp12
 70
     1
102
RTVSPropertyOp13
 70
     1
102
RTVSPropertyOp14
 70
     1
102
RTVSPropertyOp15
 70
     1
102
RTVSPropertyOp16
 70
     1
102
RTVSPropertyOp17
 70
     1
102
RTVSPropertyOp18
 70
     1
102
RTVSPropertyOp19
 70
     1
102
RTVSPropertyOp20
 70
     1
102
RTVSPropertyOp21
 70
     1
102
RTVSPropertyOp22
 70
     1
102
RTVSPropertyOp23
 70
     1
102
RTVSPropertyOp24
 70
     1
102
RTVSPropertyOp25
 70
     1
102
RTVSPropertyOp26
 70
     1
102
RTVSPropertyOp27
 70
     1
102
RTVSPropertyOp28
 70
     1
102
RTVSPropertyOp29
 70
     1
102
RTVSPropertyOp30
 70
     1
102
RTVSPropertyOp31
 70
     1
102
RTVSPropertyOp32
 70
     1
102
RTVSPropertyOp33
 70
     1
102
RTVSPropertyOp34
 70
     1
102
RTVSPropertyOp35
 70
     1
102
RTVSPropertyOp36
 70
     1
102
RTVSPropertyOp37
 70
     1
102
RTVSPropertyOp38
 70
     1
102
RTVSPropertyOp39
 70
     1
102
RTVSPropertyOp40
 70
     1
102
RTVSPropertyOp41
 70
     1
102
RTVSPropertyOp42
 70
     1
102
RTVSPropertyOp43
 70
     1
102
RTVSPropertyOp44
 70
     1
102
RTVSPropertyOp45
 70
     1
102
RTVSPropertyOp46
 70
     1
102
RTVSPropertyOp47
 70
     1
102
RTVSPropertyOp48
 70
     1
102
RTVSPropertyOp49
 70
     1
102
RTVSPropertyOp50
 70
     1
102
RTVSPropertyOp51
 70
     0
102
RTVSPropertyOp52
 70
     0
102
RTVSPropertyOp53
 70
     1
102
RTVSPropertyOp54
 70
     1
102
RTVSPropertyOp55
 70
     1
102
RTVSPropertyOp56
 70
     1
102
RTVSPropertyOp57
 70
     1
102
RTVSPost2010Prop28
280
     0
102
RTVSPost2010PropOp28
 70
     1
102
RTVSPost2010Prop29
280
     1
102
RTVSPost2010PropOp29
 70
     1
102
RTVSPost2010Prop30
280
     1
102
RTVSPost2010PropOp30
 70
     1
102
RTVSPost2010Prop31
280
     0
102
RTVSPost2010PropOp31
 70
     1
102
RTVSPost2010Prop32
280
     0
102
RTVSPost2010PropOp32
 70
     1
102
RTVSPost2010Prop33
280
     0
102
RTVSPost2010PropOp33
 70
     1
102
RTVSPost2010Prop34
280
     0
102
RTVSPost2010PropOp34
 70
     1
102
RTVSPost2010Prop35
280
     0
102
RTVSPost2010PropOp35
 70
     1
102
RTVSPost2010Prop36
280
     0
102
RTVSPost2010PropOp36
 70
     1
102
RTVSPost2010Prop37
 90
       50
102
RTVSPost2010PropOp37
 70
     1
102
RTVSPost2010Prop38
140
0.0
102
RTVSPost2010PropOp38
 70
     1
102
RTVSPost2010Prop39
140
1.0
102
RTVSPost2010PropOp39
 70
     1
102
RTVSPost2010Prop40
 90
        0
102
RTVSPost2010PropOp40
 70
     1
102
RTVSPost2010Prop41ColorIndex
 90
       18
102
RTVSPost2010Prop41ColorRGB
 90
        0
102
RTVSPost2010PropOp41
 70
     1
102
RTVSPost2010Prop42
 90
       50
102
RTVSPost2010PropOp42
 70
     1
102
RTVSPost2010Prop43
 90
        3
102
RTVSPost2010PropOp43
 70
     1
102
RTVSPost2010Prop44ColorIndex
 90
        5
102
RTVSPost2010Prop44ColorRGB
 90
      255
102
RTVSPost2010PropOp44
 70
     1
102
RTVSPost2010Prop45
280
     0
102
RTVSPost2010PropOp45
 70
     1
102
RTVSPost2010Prop46
 90
       50
102
RTVSPost2010PropOp46
 70
     1
102
RTVSPost2010Prop47
 90
       50
102
RTVSPost2010PropOp47
 70
     1
102
RTVSPost2010Prop48
 90
       50
102
RTVSPost2010PropOp48
 70
     1
102
RTVSPost2010Prop49
280
     0
102
RTVSPost2010PropOp49
 70
     1
102
RTVSPost2010Prop50
 90
       50
102
RTVSPost2010PropOp50
 70
     1
102
RTVSPost2010Prop51ColorIndex
 90
      256
102
RTVSPost2010Prop51ColorRGB
 90
-16777216
102
RTVSPost2010PropOp51
 70
     0
102
RTVSPost2010Prop52
140
1.0
102
RTVSPost2010PropOp52
 70
     0
102
RTVSPost2010Prop53
 90
        2
102
RTVSPost2010PropOp53
 70
     1
102
RTVSPost2010Prop54
  1
strokes_ogs.tif
102
RTVSPost2010PropOp54
 70
     1
102
RTVSPost2010Prop55
280
     0
102
RTVSPost2010PropOp55
 70
     1
102
RTVSPost2010Prop56
140
1.0
102
RTVSPost2010PropOp56
 70
     1
102
RTVSPost2010Prop57
140
1.0
102
RTVSPost2010PropOp57
 70
     1
  0
XRECORD
  5
34B
102
{ACAD_REACTORS
330
34A
102
}
330
34A
100
AcDbXrecord
280
     1
102
RTVSPropertyOp0
 70
     0
102
RTVSPropertyOp1
 70
     0
102
RTVSPropertyOp2
 70
     0
102
RTVSPropertyOp3
 70
     0
102
RTVSPropertyOp4
 70
     0
102
RTVSPropertyOp5
 70
     0
102
RTVSPropertyOp6
 70
     0
102
RTVSPropertyOp7
 70
     0
102
RTVSPropertyOp8
 70
     0
102
RTVSPropertyOp9
 70
     0
102
RTVSPropertyOp10
 70
     0
102
RTVSPropertyOp11
 70
     0
102
RTVSPropertyOp12
 70
     0
102
RTVSPropertyOp13
 70
     0
102
RTVSPropertyOp14
 70
     2
102
RTVSPropertyOp15
 70
     0
102
RTVSPropertyOp16
 70
     0
102
RTVSPropertyOp17
 70
     0
102
RTVSPropertyOp18
 70
     0
102
RTVSPropertyOp19
 70
     0
102
RTVSPropertyOp20
 70
     0
102
RTVSPropertyOp21
 70
     0
102
RTVSPropertyOp22
 70
     0
102
RTVSPropertyOp23
 70
     0
102
RTVSPropertyOp24
 70
     0
102
RTVSPropertyOp25
 70
     0
102
RTVSPropertyOp26
 70
     0
102
RTVSPropertyOp27
 70
     0
102
RTVSPropertyOp28
 70
     0
102
RTVSPropertyOp29
 70
     0
102
RTVSPropertyOp30
 70
     0
102
RTVSPropertyOp31
 70
     0
102
RTVSPropertyOp32
 70
     0
102
RTVSPropertyOp33
 70
     0
102
RTVSPropertyOp34
 70
     0
102
RTVSPropertyOp35
 70
     0
102
RTVSPropertyOp36
 70
     0
102
RTVSPropertyOp37
 70
     0
102
RTVSPropertyOp38
 70
     0
102
RTVSPropertyOp39
 70
     0
102
RTVSPropertyOp40
 70
     0
102
RTVSPropertyOp41
 70
     0
102
RTVSPropertyOp42
 70
     0
102
RTVSPropertyOp43
 70
     0
102
RTVSPropertyOp44
 70
     0
102
RTVSPropertyOp45
 70
     0
102
RTVSPropertyOp46
 70
     0
102
RTVSPropertyOp47
 70
     0
102
RTVSPropertyOp48
 70
     0
102
RTVSPropertyOp49
 70
     0
102
RTVSPropertyOp50
 70
     0
102
RTVSPropertyOp51
 70
     0
102
RTVSPropertyOp52
 70
     0
102
RTVSPropertyOp53
 70
     0
102
RTVSPropertyOp54
 70
     0
102
RTVSPropertyOp55
 70
     0
102
RTVSPropertyOp56
 70
     0
102
RTVSPropertyOp57
 70
     0
102
RTVSPost2010Prop28
280
     0
102
RTVSPost2010PropOp28
 70
     0
102
RTVSPost2010Prop29
280
     1
102
RTVSPost2010PropOp29
 70
     0
102
RTVSPost2010Prop30
280
     1
102
RTVSPost2010PropOp30
 70
     0
102
RTVSPost2010Prop31
280
     0
102
RTVSPost2010PropOp31
 70
     0
102
RTVSPost2010Prop32
280
     0
102
RTVSPost2010PropOp32
 70
     0
102
RTVSPost2010Prop33
280
     0
102
RTVSPost2010PropOp33
 70
     0
102
RTVSPost2010Prop34
280
     0
102
RTVSPost2010PropOp34
 70
     0
102
RTVSPost2010Prop35
280
     0
102
RTVSPost2010PropOp35
 70
     0
102
RTVSPost2010Prop36
280
     0
102
RTVSPost2010PropOp36
 70
     0
102
RTVSPost2010Prop37
 90
       50
102
RTVSPost2010PropOp37
 70
     0
102
RTVSPost2010Prop38
140
0.0
102
RTVSPost2010PropOp38
 70
     0
102
RTVSPost2010Prop39
140
1.0
102
RTVSPost2010PropOp39
 70
     0
102
RTVSPost2010Prop40
 90
        0
102
RTVSPost2010PropOp40
 70
     0
102
RTVSPost2010Prop41ColorIndex
 90
       18
102
RTVSPost2010Prop41ColorRGB
 90
        0
102
RTVSPost2010PropOp41
 70
     0
102
RTVSPost2010Prop42
 90
       50
102
RTVSPost2010PropOp42
 70
     0
102
RTVSPost2010Prop43
 90
        3
102
RTVSPost2010PropOp43
 70
     0
102
RTVSPost2010Prop44ColorIndex
 90
        5
102
RTVSPost2010Prop44ColorRGB
 90
      255
102
RTVSPost2010PropOp44
 70
     0
102
RTVSPost2010Prop45
280
     0
102
RTVSPost2010PropOp45
 70
     0
102
RTVSPost2010Prop46
 90
       50
102
RTVSPost2010PropOp46
 70
     0
102
RTVSPost2010Prop47
 90
       50
102
RTVSPost2010PropOp47
 70
     0
102
RTVSPost2010Prop48
 90
       50
102
RTVSPost2010PropOp48
 70
     0
102
RTVSPost2010Prop49
280
     0
102
RTVSPost2010PropOp49
 70
     0
102
RTVSPost2010Prop50
 90
       50
102
RTVSPost2010PropOp50
 70
     0
102
RTVSPost2010Prop51ColorIndex
 90
      256
102
RTVSPost2010Prop51ColorRGB
 90
-16777216
102
RTVSPost2010PropOp51
 70
     0
102
RTVSPost2010Prop52
140
1.0
102
RTVSPost2010PropOp52
 70
     0
102
RTVSPost2010Prop53
 90
        2
102
RTVSPost2010PropOp53
 70
     0
102
RTVSPost2010Prop54
  1
strokes_ogs.tif
102
RTVSPost2010PropOp54
 70
     0
102
RTVSPost2010Prop55
280
     0
102
RTVSPost2010PropOp55
 70
     0
102
RTVSPost2010Prop56
140
1.0
102
RTVSPost2010PropOp56
 70
     0
102
RTVSPost2010Prop57
140
1.0
102
RTVSPost2010PropOp57
 70
     0
  0
XRECORD
  5
343
102
{ACAD_REACTORS
330
342
102
}
330
342
100
AcDbXrecord
280
     1
102
RTVSPropertyOp0
 70
     1
102
RTVSPropertyOp1
 70
     1
102
RTVSPropertyOp2
 70
     1
102
RTVSPropertyOp3
 70
     1
102
RTVSPropertyOp4
 70
     1
102
RTVSPropertyOp5
 70
     1
102
RTVSPropertyOp6
 70
     1
102
RTVSPropertyOp7
 70
     1
102
RTVSPropertyOp8
 70
     1
102
RTVSPropertyOp9
 70
     1
102
RTVSPropertyOp10
 70
     1
102
RTVSPropertyOp11
 70
     1
102
RTVSPropertyOp12
 70
     1
102
RTVSPropertyOp13
 70
     1
102
RTVSPropertyOp14
 70
     1
102
RTVSPropertyOp15
 70
     1
102
RTVSPropertyOp16
 70
     1
102
RTVSPropertyOp17
 70
     1
102
RTVSPropertyOp18
 70
     1
102
RTVSPropertyOp19
 70
     1
102
RTVSPropertyOp20
 70
     1
102
RTVSPropertyOp21
 70
     1
102
RTVSPropertyOp22
 70
     1
102
RTVSPropertyOp23
 70
     1
102
RTVSPropertyOp24
 70
     1
102
RTVSPropertyOp25
 70
     1
102
RTVSPropertyOp26
 70
     1
102
RTVSPropertyOp27
 70
     1
102
RTVSPropertyOp28
 70
     1
102
RTVSPropertyOp29
 70
     1
102
RTVSPropertyOp30
 70
     1
102
RTVSPropertyOp31
 70
     1
102
RTVSPropertyOp32
 70
     1
102
RTVSPropertyOp33
 70
     1
102
RTVSPropertyOp34
 70
     1
102
RTVSPropertyOp35
 70
     1
102
RTVSPropertyOp36
 70
     1
102
RTVSPropertyOp37
 70
     1
102
RTVSPropertyOp38
 70
     1
102
RTVSPropertyOp39
 70
     1
102
RTVSPropertyOp40
 70
     1
102
RTVSPropertyOp41
 70
     1
102
RTVSPropertyOp42
 70
     1
102
RTVSPropertyOp43
 70
     1
102
RTVSPropertyOp44
 70
     1
102
RTVSPropertyOp45
 70
     1
102
RTVSPropertyOp46
 70
     1
102
RTVSPropertyOp47
 70
     1
102
RTVSPropertyOp48
 70
     1
102
RTVSPropertyOp49
 70
     1
102
RTVSPropertyOp50
 70
     1
102
RTVSPropertyOp51
 70
     0
102
RTVSPropertyOp52
 70
     0
102
RTVSPropertyOp53
 70
     1
102
RTVSPropertyOp54
 70
     1
102
RTVSPropertyOp55
 70
     1
102
RTVSPropertyOp56
 70
     1
102
RTVSPropertyOp57
 70
     1
102
RTVSPost2010Prop28
280
     0
102
RTVSPost2010PropOp28
 70
     1
102
RTVSPost2010Prop29
280
     1
102
RTVSPost2010PropOp29
 70
     1
102
RTVSPost2010Prop30
280
     1
102
RTVSPost2010PropOp30
 70
     1
102
RTVSPost2010Prop31
280
     0
102
RTVSPost2010PropOp31
 70
     1
102
RTVSPost2010Prop32
280
     0
102
RTVSPost2010PropOp32
 70
     1
102
RTVSPost2010Prop33
280
     0
102
RTVSPost2010PropOp33
 70
     1
102
RTVSPost2010Prop34
280
     0
102
RTVSPost2010PropOp34
 70
     1
102
RTVSPost2010Prop35
280
     0
102
RTVSPost2010PropOp35
 70
     1
102
RTVSPost2010Prop36
280
     0
102
RTVSPost2010PropOp36
 70
     1
102
RTVSPost2010Prop37
 90
       50
102
RTVSPost2010PropOp37
 70
     1
102
RTVSPost2010Prop38
140
0.0
102
RTVSPost2010PropOp38
 70
     1
102
RTVSPost2010Prop39
140
1.0
102
RTVSPost2010PropOp39
 70
     1
102
RTVSPost2010Prop40
 90
        0
102
RTVSPost2010PropOp40
 70
     1
102
RTVSPost2010Prop41ColorIndex
 90
       18
102
RTVSPost2010Prop41ColorRGB
 90
        0
102
RTVSPost2010PropOp41
 70
     1
102
RTVSPost2010Prop42
 90
       50
102
RTVSPost2010PropOp42
 70
     1
102
RTVSPost2010Prop43
 90
        3
102
RTVSPost2010PropOp43
 70
     1
102
RTVSPost2010Prop44ColorIndex
 90
        5
102
RTVSPost2010Prop44ColorRGB
 90
      255
102
RTVSPost2010PropOp44
 70
     1
102
RTVSPost2010Prop45
280
     0
102
RTVSPost2010PropOp45
 70
     1
102
RTVSPost2010Prop46
 90
       50
102
RTVSPost2010PropOp46
 70
     1
102
RTVSPost2010Prop47
 90
       50
102
RTVSPost2010PropOp47
 70
     1
102
RTVSPost2010Prop48
 90
       50
102
RTVSPost2010PropOp48
 70
     1
102
RTVSPost2010Prop49
280
     0
102
RTVSPost2010PropOp49
 70
     1
102
RTVSPost2010Prop50
 90
       50
102
RTVSPost2010PropOp50
 70
     1
102
RTVSPost2010Prop51ColorIndex
 90
      256
102
RTVSPost2010Prop51ColorRGB
 90
-16777216
102
RTVSPost2010PropOp51
 70
     0
102
RTVSPost2010Prop52
140
1.0
102
RTVSPost2010PropOp52
 70
     0
102
RTVSPost2010Prop53
 90
        2
102
RTVSPost2010PropOp53
 70
     1
102
RTVSPost2010Prop54
  1
strokes_ogs.tif
102
RTVSPost2010PropOp54
 70
     1
102
RTVSPost2010Prop55
280
     0
102
RTVSPost2010PropOp55
 70
     1
102
RTVSPost2010Prop56
140
1.0
102
RTVSPost2010PropOp56
 70
     1
102
RTVSPost2010Prop57
140
1.0
102
RTVSPost2010PropOp57
 70
     1
  0
XRECORD
  5
327
102
{ACAD_REACTORS
330
326
102
}
330
326
100
AcDbXrecord
280
     1
102
RTVSPropertyOp0
 70
     1
102
RTVSPropertyOp1
 70
     1
102
RTVSPropertyOp2
 70
     1
102
RTVSPropertyOp3
 70
     1
102
RTVSPropertyOp4
 70
     1
102
RTVSPropertyOp5
 70
     1
102
RTVSPropertyOp6
 70
     1
102
RTVSPropertyOp7
 70
     1
102
RTVSPropertyOp8
 70
     1
102
RTVSPropertyOp9
 70
     1
102
RTVSPropertyOp10
 70
     1
102
RTVSPropertyOp11
 70
     1
102
RTVSPropertyOp12
 70
     1
102
RTVSPropertyOp13
 70
     1
102
RTVSPropertyOp14
 70
     1
102
RTVSPropertyOp15
 70
     1
102
RTVSPropertyOp16
 70
     1
102
RTVSPropertyOp17
 70
     1
102
RTVSPropertyOp18
 70
     1
102
RTVSPropertyOp19
 70
     1
102
RTVSPropertyOp20
 70
     1
102
RTVSPropertyOp21
 70
     1
102
RTVSPropertyOp22
 70
     1
102
RTVSPropertyOp23
 70
     1
102
RTVSPropertyOp24
 70
     1
102
RTVSPropertyOp25
 70
     1
102
RTVSPropertyOp26
 70
     1
102
RTVSPropertyOp27
 70
     1
102
RTVSPropertyOp28
 70
     1
102
RTVSPropertyOp29
 70
     1
102
RTVSPropertyOp30
 70
     1
102
RTVSPropertyOp31
 70
     1
102
RTVSPropertyOp32
 70
     1
102
RTVSPropertyOp33
 70
     1
102
RTVSPropertyOp34
 70
     1
102
RTVSPropertyOp35
 70
     1
102
RTVSPropertyOp36
 70
     1
102
RTVSPropertyOp37
 70
     1
102
RTVSPropertyOp38
 70
     1
102
RTVSPropertyOp39
 70
     1
102
RTVSPropertyOp40
 70
     1
102
RTVSPropertyOp41
 70
     1
102
RTVSPropertyOp42
 70
     1
102
RTVSPropertyOp43
 70
     1
102
RTVSPropertyOp44
 70
     1
102
RTVSPropertyOp45
 70
     1
102
RTVSPropertyOp46
 70
     1
102
RTVSPropertyOp47
 70
     1
102
RTVSPropertyOp48
 70
     1
102
RTVSPropertyOp49
 70
     1
102
RTVSPropertyOp50
 70
     1
102
RTVSPropertyOp51
 70
     0
102
RTVSPropertyOp52
 70
     0
102
RTVSPropertyOp53
 70
     1
102
RTVSPropertyOp54
 70
     1
102
RTVSPropertyOp55
 70
     1
102
RTVSPropertyOp56
 70
     1
102
RTVSPropertyOp57
 70
     1
102
RTVSPost2010Prop28
280
     0
102
RTVSPost2010PropOp28
 70
     1
102
RTVSPost2010Prop29
280
     1
102
RTVSPost2010PropOp29
 70
     1
102
RTVSPost2010Prop30
280
     1
102
RTVSPost2010PropOp30
 70
     1
102
RTVSPost2010Prop31
280
     0
102
RTVSPost2010PropOp31
 70
     1
102
RTVSPost2010Prop32
280
     0
102
RTVSPost2010PropOp32
 70
     1
102
RTVSPost2010Prop33
280
     0
102
RTVSPost2010PropOp33
 70
     1
102
RTVSPost2010Prop34
280
     0
102
RTVSPost2010PropOp34
 70
     1
102
RTVSPost2010Prop35
280
     0
102
RTVSPost2010PropOp35
 70
     1
102
RTVSPost2010Prop36
280
     0
102
RTVSPost2010PropOp36
 70
     1
102
RTVSPost2010Prop37
 90
       50
102
RTVSPost2010PropOp37
 70
     1
102
RTVSPost2010Prop38
140
0.0
102
RTVSPost2010PropOp38
 70
     1
102
RTVSPost2010Prop39
140
1.0
102
RTVSPost2010PropOp39
 70
     1
102
RTVSPost2010Prop40
 90
        0
102
RTVSPost2010PropOp40
 70
     1
102
RTVSPost2010Prop41ColorIndex
 90
       18
102
RTVSPost2010Prop41ColorRGB
 90
        0
102
RTVSPost2010PropOp41
 70
     1
102
RTVSPost2010Prop42
 90
       50
102
RTVSPost2010PropOp42
 70
     1
102
RTVSPost2010Prop43
 90
        3
102
RTVSPost2010PropOp43
 70
     1
102
RTVSPost2010Prop44ColorIndex
 90
        5
102
RTVSPost2010Prop44ColorRGB
 90
      255
102
RTVSPost2010PropOp44
 70
     1
102
RTVSPost2010Prop45
280
     0
102
RTVSPost2010PropOp45
 70
     1
102
RTVSPost2010Prop46
 90
       50
102
RTVSPost2010PropOp46
 70
     1
102
RTVSPost2010Prop47
 90
       50
102
RTVSPost2010PropOp47
 70
     1
102
RTVSPost2010Prop48
 90
       50
102
RTVSPost2010PropOp48
 70
     1
102
RTVSPost2010Prop49
280
     0
102
RTVSPost2010PropOp49
 70
     1
102
RTVSPost2010Prop50
 90
       50
102
RTVSPost2010PropOp50
 70
     1
102
RTVSPost2010Prop51ColorIndex
 90
      256
102
RTVSPost2010Prop51ColorRGB
 90
-16777216
102
RTVSPost2010PropOp51
 70
     0
102
RTVSPost2010Prop52
140
1.0
102
RTVSPost2010PropOp52
 70
     0
102
RTVSPost2010Prop53
 90
        2
102
RTVSPost2010PropOp53
 70
     1
102
RTVSPost2010Prop54
  1
strokes_ogs.tif
102
RTVSPost2010PropOp54
 70
     1
102
RTVSPost2010Prop55
280
     0
102
RTVSPost2010PropOp55
 70
     1
102
RTVSPost2010Prop56
140
1.0
102
RTVSPost2010PropOp56
 70
     1
102
RTVSPost2010Prop57
140
1.0
102
RTVSPost2010PropOp57
 70
     1
  0
XRECORD
  5
329
102
{ACAD_REACTORS
330
328
102
}
330
328
100
AcDbXrecord
280
     1
102
RTVSPropertyOp0
 70
     1
102
RTVSPropertyOp1
 70
     1
102
RTVSPropertyOp2
 70
     1
102
RTVSPropertyOp3
 70
     1
102
RTVSPropertyOp4
 70
     1
102
RTVSPropertyOp5
 70
     1
102
RTVSPropertyOp6
 70
     1
102
RTVSPropertyOp7
 70
     1
102
RTVSPropertyOp8
 70
     1
102
RTVSPropertyOp9
 70
     1
102
RTVSPropertyOp10
 70
     1
102
RTVSPropertyOp11
 70
     1
102
RTVSPropertyOp12
 70
     1
102
RTVSPropertyOp13
 70
     1
102
RTVSPropertyOp14
 70
     1
102
RTVSPropertyOp15
 70
     1
102
RTVSPropertyOp16
 70
     1
102
RTVSPropertyOp17
 70
     1
102
RTVSPropertyOp18
 70
     1
102
RTVSPropertyOp19
 70
     1
102
RTVSPropertyOp20
 70
     1
102
RTVSPropertyOp21
 70
     1
102
RTVSPropertyOp22
 70
     1
102
RTVSPropertyOp23
 70
     1
102
RTVSPropertyOp24
 70
     1
102
RTVSPropertyOp25
 70
     1
102
RTVSPropertyOp26
 70
     1
102
RTVSPropertyOp27
 70
     1
102
RTVSPropertyOp28
 70
     1
102
RTVSPropertyOp29
 70
     1
102
RTVSPropertyOp30
 70
     1
102
RTVSPropertyOp31
 70
     1
102
RTVSPropertyOp32
 70
     1
102
RTVSPropertyOp33
 70
     1
102
RTVSPropertyOp34
 70
     1
102
RTVSPropertyOp35
 70
     1
102
RTVSPropertyOp36
 70
     1
102
RTVSPropertyOp37
 70
     1
102
RTVSPropertyOp38
 70
     1
102
RTVSPropertyOp39
 70
     1
102
RTVSPropertyOp40
 70
     1
102
RTVSPropertyOp41
 70
     1
102
RTVSPropertyOp42
 70
     1
102
RTVSPropertyOp43
 70
     1
102
RTVSPropertyOp44
 70
     1
102
RTVSPropertyOp45
 70
     1
102
RTVSPropertyOp46
 70
     1
102
RTVSPropertyOp47
 70
     1
102
RTVSPropertyOp48
 70
     1
102
RTVSPropertyOp49
 70
     1
102
RTVSPropertyOp50
 70
     1
102
RTVSPropertyOp51
 70
     0
102
RTVSPropertyOp52
 70
     0
102
RTVSPropertyOp53
 70
     1
102
RTVSPropertyOp54
 70
     1
102
RTVSPropertyOp55
 70
     1
102
RTVSPropertyOp56
 70
     1
102
RTVSPropertyOp57
 70
     1
102
RTVSPost2010Prop28
280
     0
102
RTVSPost2010PropOp28
 70
     1
102
RTVSPost2010Prop29
280
     1
102
RTVSPost2010PropOp29
 70
     1
102
RTVSPost2010Prop30
280
     1
102
RTVSPost2010PropOp30
 70
     1
102
RTVSPost2010Prop31
280
     0
102
RTVSPost2010PropOp31
 70
     1
102
RTVSPost2010Prop32
280
     0
102
RTVSPost2010PropOp32
 70
     1
102
RTVSPost2010Prop33
280
     0
102
RTVSPost2010PropOp33
 70
     1
102
RTVSPost2010Prop34
280
     0
102
RTVSPost2010PropOp34
 70
     1
102
RTVSPost2010Prop35
280
     0
102
RTVSPost2010PropOp35
 70
     1
102
RTVSPost2010Prop36
280
     0
102
RTVSPost2010PropOp36
 70
     1
102
RTVSPost2010Prop37
 90
       50
102
RTVSPost2010PropOp37
 70
     1
102
RTVSPost2010Prop38
140
0.0
102
RTVSPost2010PropOp38
 70
     1
102
RTVSPost2010Prop39
140
1.0
102
RTVSPost2010PropOp39
 70
     1
102
RTVSPost2010Prop40
 90
        0
102
RTVSPost2010PropOp40
 70
     1
102
RTVSPost2010Prop41ColorIndex
 90
       18
102
RTVSPost2010Prop41ColorRGB
 90
        0
102
RTVSPost2010PropOp41
 70
     1
102
RTVSPost2010Prop42
 90
       50
102
RTVSPost2010PropOp42
 70
     1
102
RTVSPost2010Prop43
 90
        3
102
RTVSPost2010PropOp43
 70
     1
102
RTVSPost2010Prop44ColorIndex
 90
        5
102
RTVSPost2010Prop44ColorRGB
 90
      255
102
RTVSPost2010PropOp44
 70
     1
102
RTVSPost2010Prop45
280
     0
102
RTVSPost2010PropOp45
 70
     1
102
RTVSPost2010Prop46
 90
       50
102
RTVSPost2010PropOp46
 70
     1
102
RTVSPost2010Prop47
 90
       50
102
RTVSPost2010PropOp47
 70
     1
102
RTVSPost2010Prop48
 90
       50
102
RTVSPost2010PropOp48
 70
     1
102
RTVSPost2010Prop49
280
     0
102
RTVSPost2010PropOp49
 70
     1
102
RTVSPost2010Prop50
 90
       50
102
RTVSPost2010PropOp50
 70
     1
102
RTVSPost2010Prop51ColorIndex
 90
      256
102
RTVSPost2010Prop51ColorRGB
 90
-16777216
102
RTVSPost2010PropOp51
 70
     0
102
RTVSPost2010Prop52
140
1.0
102
RTVSPost2010PropOp52
 70
     0
102
RTVSPost2010Prop53
 90
        2
102
RTVSPost2010PropOp53
 70
     1
102
RTVSPost2010Prop54
  1
strokes_ogs.tif
102
RTVSPost2010PropOp54
 70
     1
102
RTVSPost2010Prop55
280
     0
102
RTVSPost2010PropOp55
 70
     1
102
RTVSPost2010Prop56
140
1.0
102
RTVSPost2010PropOp56
 70
     1
102
RTVSPost2010Prop57
140
1.0
102
RTVSPost2010PropOp57
 70
     1
  0
XRECORD
  5
32B
102
{ACAD_REACTORS
330
32A
102
}
330
32A
100
AcDbXrecord
280
     1
102
RTVSPropertyOp0
 70
     1
102
RTVSPropertyOp1
 70
     1
102
RTVSPropertyOp2
 70
     1
102
RTVSPropertyOp3
 70
     1
102
RTVSPropertyOp4
 70
     1
102
RTVSPropertyOp5
 70
     1
102
RTVSPropertyOp6
 70
     1
102
RTVSPropertyOp7
 70
     1
102
RTVSPropertyOp8
 70
     1
102
RTVSPropertyOp9
 70
     1
102
RTVSPropertyOp10
 70
     1
102
RTVSPropertyOp11
 70
     1
102
RTVSPropertyOp12
 70
     1
102
RTVSPropertyOp13
 70
     1
102
RTVSPropertyOp14
 70
     1
102
RTVSPropertyOp15
 70
     1
102
RTVSPropertyOp16
 70
     1
102
RTVSPropertyOp17
 70
     1
102
RTVSPropertyOp18
 70
     1
102
RTVSPropertyOp19
 70
     1
102
RTVSPropertyOp20
 70
     1
102
RTVSPropertyOp21
 70
     1
102
RTVSPropertyOp22
 70
     1
102
RTVSPropertyOp23
 70
     1
102
RTVSPropertyOp24
 70
     1
102
RTVSPropertyOp25
 70
     1
102
RTVSPropertyOp26
 70
     1
102
RTVSPropertyOp27
 70
     1
102
RTVSPropertyOp28
 70
     1
102
RTVSPropertyOp29
 70
     1
102
RTVSPropertyOp30
 70
     1
102
RTVSPropertyOp31
 70
     1
102
RTVSPropertyOp32
 70
     1
102
RTVSPropertyOp33
 70
     1
102
RTVSPropertyOp34
 70
     1
102
RTVSPropertyOp35
 70
     1
102
RTVSPropertyOp36
 70
     1
102
RTVSPropertyOp37
 70
     1
102
RTVSPropertyOp38
 70
     1
102
RTVSPropertyOp39
 70
     1
102
RTVSPropertyOp40
 70
     1
102
RTVSPropertyOp41
 70
     1
102
RTVSPropertyOp42
 70
     1
102
RTVSPropertyOp43
 70
     1
102
RTVSPropertyOp44
 70
     1
102
RTVSPropertyOp45
 70
     1
102
RTVSPropertyOp46
 70
     1
102
RTVSPropertyOp47
 70
     1
102
RTVSPropertyOp48
 70
     1
102
RTVSPropertyOp49
 70
     1
102
RTVSPropertyOp50
 70
     1
102
RTVSPropertyOp51
 70
     0
102
RTVSPropertyOp52
 70
     0
102
RTVSPropertyOp53
 70
     1
102
RTVSPropertyOp54
 70
     1
102
RTVSPropertyOp55
 70
     1
102
RTVSPropertyOp56
 70
     1
102
RTVSPropertyOp57
 70
     1
102
RTVSPost2010Prop28
280
     0
102
RTVSPost2010PropOp28
 70
     1
102
RTVSPost2010Prop29
280
     1
102
RTVSPost2010PropOp29
 70
     1
102
RTVSPost2010Prop30
280
     1
102
RTVSPost2010PropOp30
 70
     1
102
RTVSPost2010Prop31
280
     0
102
RTVSPost2010PropOp31
 70
     1
102
RTVSPost2010Prop32
280
     0
102
RTVSPost2010PropOp32
 70
     1
102
RTVSPost2010Prop33
280
     0
102
RTVSPost2010PropOp33
 70
     1
102
RTVSPost2010Prop34
280
     0
102
RTVSPost2010PropOp34
 70
     1
102
RTVSPost2010Prop35
280
     0
102
RTVSPost2010PropOp35
 70
     1
102
RTVSPost2010Prop36
280
     0
102
RTVSPost2010PropOp36
 70
     1
102
RTVSPost2010Prop37
 90
       50
102
RTVSPost2010PropOp37
 70
     1
102
RTVSPost2010Prop38
140
0.0
102
RTVSPost2010PropOp38
 70
     1
102
RTVSPost2010Prop39
140
1.0
102
RTVSPost2010PropOp39
 70
     1
102
RTVSPost2010Prop40
 90
        0
102
RTVSPost2010PropOp40
 70
     1
102
RTVSPost2010Prop41ColorIndex
 90
       18
102
RTVSPost2010Prop41ColorRGB
 90
        0
102
RTVSPost2010PropOp41
 70
     1
102
RTVSPost2010Prop42
 90
       50
102
RTVSPost2010PropOp42
 70
     1
102
RTVSPost2010Prop43
 90
        3
102
RTVSPost2010PropOp43
 70
     1
102
RTVSPost2010Prop44ColorIndex
 90
        5
102
RTVSPost2010Prop44ColorRGB
 90
      255
102
RTVSPost2010PropOp44
 70
     1
102
RTVSPost2010Prop45
280
     0
102
RTVSPost2010PropOp45
 70
     1
102
RTVSPost2010Prop46
 90
       50
102
RTVSPost2010PropOp46
 70
     1
102
RTVSPost2010Prop47
 90
       50
102
RTVSPost2010PropOp47
 70
     1
102
RTVSPost2010Prop48
 90
       50
102
RTVSPost2010PropOp48
 70
     1
102
RTVSPost2010Prop49
280
     0
102
RTVSPost2010PropOp49
 70
     1
102
RTVSPost2010Prop50
 90
       50
102
RTVSPost2010PropOp50
 70
     1
102
RTVSPost2010Prop51ColorIndex
 90
      256
102
RTVSPost2010Prop51ColorRGB
 90
-16777216
102
RTVSPost2010PropOp51
 70
     0
102
RTVSPost2010Prop52
140
1.0
102
RTVSPost2010PropOp52
 70
     0
102
RTVSPost2010Prop53
 90
        2
102
RTVSPost2010PropOp53
 70
     1
102
RTVSPost2010Prop54
  1
strokes_ogs.tif
102
RTVSPost2010PropOp54
 70
     1
102
RTVSPost2010Prop55
280
     0
102
RTVSPost2010PropOp55
 70
     1
102
RTVSPost2010Prop56
140
1.0
102
RTVSPost2010PropOp56
 70
     1
102
RTVSPost2010Prop57
140
1.0
102
RTVSPost2010PropOp57
 70
     1
  0
XRECORD
  5
32D
102
{ACAD_REACTORS
330
32C
102
}
330
32C
100
AcDbXrecord
280
     1
102
RTVSPropertyOp0
 70
     1
102
RTVSPropertyOp1
 70
     1
102
RTVSPropertyOp2
 70
     1
102
RTVSPropertyOp3
 70
     1
102
RTVSPropertyOp4
 70
     1
102
RTVSPropertyOp5
 70
     1
102
RTVSPropertyOp6
 70
     1
102
RTVSPropertyOp7
 70
     1
102
RTVSPropertyOp8
 70
     1
102
RTVSPropertyOp9
 70
     1
102
RTVSPropertyOp10
 70
     1
102
RTVSPropertyOp11
 70
     1
102
RTVSPropertyOp12
 70
     1
102
RTVSPropertyOp13
 70
     1
102
RTVSPropertyOp14
 70
     1
102
RTVSPropertyOp15
 70
     1
102
RTVSPropertyOp16
 70
     1
102
RTVSPropertyOp17
 70
     1
102
RTVSPropertyOp18
 70
     1
102
RTVSPropertyOp19
 70
     1
102
RTVSPropertyOp20
 70
     1
102
RTVSPropertyOp21
 70
     1
102
RTVSPropertyOp22
 70
     1
102
RTVSPropertyOp23
 70
     1
102
RTVSPropertyOp24
 70
     1
102
RTVSPropertyOp25
 70
     1
102
RTVSPropertyOp26
 70
     1
102
RTVSPropertyOp27
 70
     1
102
RTVSPropertyOp28
 70
     1
102
RTVSPropertyOp29
 70
     1
102
RTVSPropertyOp30
 70
     1
102
RTVSPropertyOp31
 70
     1
102
RTVSPropertyOp32
 70
     1
102
RTVSPropertyOp33
 70
     1
102
RTVSPropertyOp34
 70
     1
102
RTVSPropertyOp35
 70
     1
102
RTVSPropertyOp36
 70
     1
102
RTVSPropertyOp37
 70
     1
102
RTVSPropertyOp38
 70
     1
102
RTVSPropertyOp39
 70
     1
102
RTVSPropertyOp40
 70
     1
102
RTVSPropertyOp41
 70
     1
102
RTVSPropertyOp42
 70
     1
102
RTVSPropertyOp43
 70
     1
102
RTVSPropertyOp44
 70
     1
102
RTVSPropertyOp45
 70
     1
102
RTVSPropertyOp46
 70
     1
102
RTVSPropertyOp47
 70
     1
102
RTVSPropertyOp48
 70
     1
102
RTVSPropertyOp49
 70
     1
102
RTVSPropertyOp50
 70
     1
102
RTVSPropertyOp51
 70
     0
102
RTVSPropertyOp52
 70
     0
102
RTVSPropertyOp53
 70
     1
102
RTVSPropertyOp54
 70
     1
102
RTVSPropertyOp55
 70
     1
102
RTVSPropertyOp56
 70
     1
102
RTVSPropertyOp57
 70
     1
102
RTVSPost2010Prop28
280
     0
102
RTVSPost2010PropOp28
 70
     1
102
RTVSPost2010Prop29
280
     1
102
RTVSPost2010PropOp29
 70
     1
102
RTVSPost2010Prop30
280
     1
102
RTVSPost2010PropOp30
 70
     1
102
RTVSPost2010Prop31
280
     0
102
RTVSPost2010PropOp31
 70
     1
102
RTVSPost2010Prop32
280
     0
102
RTVSPost2010PropOp32
 70
     1
102
RTVSPost2010Prop33
280
     0
102
RTVSPost2010PropOp33
 70
     1
102
RTVSPost2010Prop34
280
     0
102
RTVSPost2010PropOp34
 70
     1
102
RTVSPost2010Prop35
280
     0
102
RTVSPost2010PropOp35
 70
     1
102
RTVSPost2010Prop36
280
     0
102
RTVSPost2010PropOp36
 70
     1
102
RTVSPost2010Prop37
 90
       50
102
RTVSPost2010PropOp37
 70
     1
102
RTVSPost2010Prop38
140
0.0
102
RTVSPost2010PropOp38
 70
     1
102
RTVSPost2010Prop39
140
1.0
102
RTVSPost2010PropOp39
 70
     1
102
RTVSPost2010Prop40
 90
        0
102
RTVSPost2010PropOp40
 70
     1
102
RTVSPost2010Prop41ColorIndex
 90
       18
102
RTVSPost2010Prop41ColorRGB
 90
        0
102
RTVSPost2010PropOp41
 70
     1
102
RTVSPost2010Prop42
 90
       50
102
RTVSPost2010PropOp42
 70
     1
102
RTVSPost2010Prop43
 90
        3
102
RTVSPost2010PropOp43
 70
     1
102
RTVSPost2010Prop44ColorIndex
 90
        5
102
RTVSPost2010Prop44ColorRGB
 90
      255
102
RTVSPost2010PropOp44
 70
     1
102
RTVSPost2010Prop45
280
     0
102
RTVSPost2010PropOp45
 70
     1
102
RTVSPost2010Prop46
 90
       50
102
RTVSPost2010PropOp46
 70
     1
102
RTVSPost2010Prop47
 90
       50
102
RTVSPost2010PropOp47
 70
     1
102
RTVSPost2010Prop48
 90
       50
102
RTVSPost2010PropOp48
 70
     1
102
RTVSPost2010Prop49
280
     0
102
RTVSPost2010PropOp49
 70
     1
102
RTVSPost2010Prop50
 90
       50
102
RTVSPost2010PropOp50
 70
     1
102
RTVSPost2010Prop51ColorIndex
 90
      256
102
RTVSPost2010Prop51ColorRGB
 90
-16777216
102
RTVSPost2010PropOp51
 70
     0
102
RTVSPost2010Prop52
140
1.0
102
RTVSPost2010PropOp52
 70
     0
102
RTVSPost2010Prop53
 90
        2
102
RTVSPost2010PropOp53
 70
     1
102
RTVSPost2010Prop54
  1
strokes_ogs.tif
102
RTVSPost2010PropOp54
 70
     1
102
RTVSPost2010Prop55
280
     0
102
RTVSPost2010PropOp55
 70
     1
102
RTVSPost2010Prop56
140
1.0
102
RTVSPost2010PropOp56
 70
     1
102
RTVSPost2010Prop57
140
1.0
102
RTVSPost2010PropOp57
 70
     1
  0
XRECORD
  5
333
102
{ACAD_REACTORS
330
332
102
}
330
332
100
AcDbXrecord
280
     1
102
RTVSPropertyOp0
 70
     1
102
RTVSPropertyOp1
 70
     1
102
RTVSPropertyOp2
 70
     1
102
RTVSPropertyOp3
 70
     1
102
RTVSPropertyOp4
 70
     1
102
RTVSPropertyOp5
 70
     1
102
RTVSPropertyOp6
 70
     1
102
RTVSPropertyOp7
 70
     1
102
RTVSPropertyOp8
 70
     1
102
RTVSPropertyOp9
 70
     1
102
RTVSPropertyOp10
 70
     1
102
RTVSPropertyOp11
 70
     1
102
RTVSPropertyOp12
 70
     1
102
RTVSPropertyOp13
 70
     1
102
RTVSPropertyOp14
 70
     1
102
RTVSPropertyOp15
 70
     1
102
RTVSPropertyOp16
 70
     1
102
RTVSPropertyOp17
 70
     1
102
RTVSPropertyOp18
 70
     1
102
RTVSPropertyOp19
 70
     1
102
RTVSPropertyOp20
 70
     1
102
RTVSPropertyOp21
 70
     1
102
RTVSPropertyOp22
 70
     1
102
RTVSPropertyOp23
 70
     1
102
RTVSPropertyOp24
 70
     1
102
RTVSPropertyOp25
 70
     1
102
RTVSPropertyOp26
 70
     1
102
RTVSPropertyOp27
 70
     1
102
RTVSPropertyOp28
 70
     1
102
RTVSPropertyOp29
 70
     1
102
RTVSPropertyOp30
 70
     1
102
RTVSPropertyOp31
 70
     1
102
RTVSPropertyOp32
 70
     1
102
RTVSPropertyOp33
 70
     1
102
RTVSPropertyOp34
 70
     1
102
RTVSPropertyOp35
 70
     1
102
RTVSPropertyOp36
 70
     1
102
RTVSPropertyOp37
 70
     1
102
RTVSPropertyOp38
 70
     1
102
RTVSPropertyOp39
 70
     1
102
RTVSPropertyOp40
 70
     1
102
RTVSPropertyOp41
 70
     1
102
RTVSPropertyOp42
 70
     1
102
RTVSPropertyOp43
 70
     1
102
RTVSPropertyOp44
 70
     1
102
RTVSPropertyOp45
 70
     1
102
RTVSPropertyOp46
 70
     1
102
RTVSPropertyOp47
 70
     1
102
RTVSPropertyOp48
 70
     1
102
RTVSPropertyOp49
 70
     1
102
RTVSPropertyOp50
 70
     1
102
RTVSPropertyOp51
 70
     0
102
RTVSPropertyOp52
 70
     0
102
RTVSPropertyOp53
 70
     1
102
RTVSPropertyOp54
 70
     1
102
RTVSPropertyOp55
 70
     1
102
RTVSPropertyOp56
 70
     1
102
RTVSPropertyOp57
 70
     1
102
RTVSPost2010Prop28
280
     0
102
RTVSPost2010PropOp28
 70
     1
102
RTVSPost2010Prop29
280
     1
102
RTVSPost2010PropOp29
 70
     1
102
RTVSPost2010Prop30
280
     1
102
RTVSPost2010PropOp30
 70
     1
102
RTVSPost2010Prop31
280
     0
102
RTVSPost2010PropOp31
 70
     1
102
RTVSPost2010Prop32
280
     0
102
RTVSPost2010PropOp32
 70
     1
102
RTVSPost2010Prop33
280
     0
102
RTVSPost2010PropOp33
 70
     1
102
RTVSPost2010Prop34
280
     0
102
RTVSPost2010PropOp34
 70
     1
102
RTVSPost2010Prop35
280
     0
102
RTVSPost2010PropOp35
 70
     1
102
RTVSPost2010Prop36
280
     0
102
RTVSPost2010PropOp36
 70
     1
102
RTVSPost2010Prop37
 90
       50
102
RTVSPost2010PropOp37
 70
     1
102
RTVSPost2010Prop38
140
0.0
102
RTVSPost2010PropOp38
 70
     1
102
RTVSPost2010Prop39
140
1.0
102
RTVSPost2010PropOp39
 70
     1
102
RTVSPost2010Prop40
 90
        0
102
RTVSPost2010PropOp40
 70
     1
102
RTVSPost2010Prop41ColorIndex
 90
       18
102
RTVSPost2010Prop41ColorRGB
 90
        0
102
RTVSPost2010PropOp41
 70
     1
102
RTVSPost2010Prop42
 90
       50
102
RTVSPost2010PropOp42
 70
     1
102
RTVSPost2010Prop43
 90
        3
102
RTVSPost2010PropOp43
 70
     1
102
RTVSPost2010Prop44ColorIndex
 90
        5
102
RTVSPost2010Prop44ColorRGB
 90
      255
102
RTVSPost2010PropOp44
 70
     1
102
RTVSPost2010Prop45
280
     0
102
RTVSPost2010PropOp45
 70
     1
102
RTVSPost2010Prop46
 90
       50
102
RTVSPost2010PropOp46
 70
     1
102
RTVSPost2010Prop47
 90
       50
102
RTVSPost2010PropOp47
 70
     1
102
RTVSPost2010Prop48
 90
       50
102
RTVSPost2010PropOp48
 70
     1
102
RTVSPost2010Prop49
280
     0
102
RTVSPost2010PropOp49
 70
     1
102
RTVSPost2010Prop50
 90
       50
102
RTVSPost2010PropOp50
 70
     1
102
RTVSPost2010Prop51ColorIndex
 90
      256
102
RTVSPost2010Prop51ColorRGB
 90
-16777216
102
RTVSPost2010PropOp51
 70
     0
102
RTVSPost2010Prop52
140
1.0
102
RTVSPost2010PropOp52
 70
     0
102
RTVSPost2010Prop53
 90
        2
102
RTVSPost2010PropOp53
 70
     1
102
RTVSPost2010Prop54
  1
strokes_ogs.tif
102
RTVSPost2010PropOp54
 70
     1
102
RTVSPost2010Prop55
280
     0
102
RTVSPost2010PropOp55
 70
     1
102
RTVSPost2010Prop56
140
1.0
102
RTVSPost2010PropOp56
 70
     1
102
RTVSPost2010Prop57
140
1.0
102
RTVSPost2010PropOp57
 70
     1
  0
XRECORD
  5
347
102
{ACAD_REACTORS
330
346
102
}
330
346
100
AcDbXrecord
280
     1
102
RTVSPropertyOp0
 70
     0
102
RTVSPropertyOp1
 70
     0
102
RTVSPropertyOp2
 70
     0
102
RTVSPropertyOp3
 70
     0
102
RTVSPropertyOp4
 70
     0
102
RTVSPropertyOp5
 70
     0
102
RTVSPropertyOp6
 70
     0
102
RTVSPropertyOp7
 70
     0
102
RTVSPropertyOp8
 70
     0
102
RTVSPropertyOp9
 70
     0
102
RTVSPropertyOp10
 70
     0
102
RTVSPropertyOp11
 70
     0
102
RTVSPropertyOp12
 70
     0
102
RTVSPropertyOp13
 70
     0
102
RTVSPropertyOp14
 70
     2
102
RTVSPropertyOp15
 70
     0
102
RTVSPropertyOp16
 70
     0
102
RTVSPropertyOp17
 70
     0
102
RTVSPropertyOp18
 70
     0
102
RTVSPropertyOp19
 70
     0
102
RTVSPropertyOp20
 70
     0
102
RTVSPropertyOp21
 70
     0
102
RTVSPropertyOp22
 70
     0
102
RTVSPropertyOp23
 70
     0
102
RTVSPropertyOp24
 70
     0
102
RTVSPropertyOp25
 70
     0
102
RTVSPropertyOp26
 70
     0
102
RTVSPropertyOp27
 70
     0
102
RTVSPropertyOp28
 70
     0
102
RTVSPropertyOp29
 70
     0
102
RTVSPropertyOp30
 70
     0
102
RTVSPropertyOp31
 70
     0
102
RTVSPropertyOp32
 70
     0
102
RTVSPropertyOp33
 70
     0
102
RTVSPropertyOp34
 70
     0
102
RTVSPropertyOp35
 70
     0
102
RTVSPropertyOp36
 70
     0
102
RTVSPropertyOp37
 70
     0
102
RTVSPropertyOp38
 70
     0
102
RTVSPropertyOp39
 70
     0
102
RTVSPropertyOp40
 70
     0
102
RTVSPropertyOp41
 70
     0
102
RTVSPropertyOp42
 70
     0
102
RTVSPropertyOp43
 70
     0
102
RTVSPropertyOp44
 70
     0
102
RTVSPropertyOp45
 70
     0
102
RTVSPropertyOp46
 70
     0
102
RTVSPropertyOp47
 70
     0
102
RTVSPropertyOp48
 70
     0
102
RTVSPropertyOp49
 70
     0
102
RTVSPropertyOp50
 70
     0
102
RTVSPropertyOp51
 70
     0
102
RTVSPropertyOp52
 70
     0
102
RTVSPropertyOp53
 70
     0
102
RTVSPropertyOp54
 70
     0
102
RTVSPropertyOp55
 70
     0
102
RTVSPropertyOp56
 70
     0
102
RTVSPropertyOp57
 70
     0
102
RTVSPost2010Prop28
280
     0
102
RTVSPost2010PropOp28
 70
     0
102
RTVSPost2010Prop29
280
     1
102
RTVSPost2010PropOp29
 70
     0
102
RTVSPost2010Prop30
280
     1
102
RTVSPost2010PropOp30
 70
     0
102
RTVSPost2010Prop31
280
     0
102
RTVSPost2010PropOp31
 70
     0
102
RTVSPost2010Prop32
280
     0
102
RTVSPost2010PropOp32
 70
     0
102
RTVSPost2010Prop33
280
     0
102
RTVSPost2010PropOp33
 70
     0
102
RTVSPost2010Prop34
280
     0
102
RTVSPost2010PropOp34
 70
     0
102
RTVSPost2010Prop35
280
     0
102
RTVSPost2010PropOp35
 70
     0
102
RTVSPost2010Prop36
280
     0
102
RTVSPost2010PropOp36
 70
     0
102
RTVSPost2010Prop37
 90
       50
102
RTVSPost2010PropOp37
 70
     0
102
RTVSPost2010Prop38
140
0.0
102
RTVSPost2010PropOp38
 70
     0
102
RTVSPost2010Prop39
140
1.0
102
RTVSPost2010PropOp39
 70
     0
102
RTVSPost2010Prop40
 90
        0
102
RTVSPost2010PropOp40
 70
     0
102
RTVSPost2010Prop41ColorIndex
 90
       18
102
RTVSPost2010Prop41ColorRGB
 90
        0
102
RTVSPost2010PropOp41
 70
     0
102
RTVSPost2010Prop42
 90
       50
102
RTVSPost2010PropOp42
 70
     0
102
RTVSPost2010Prop43
 90
        3
102
RTVSPost2010PropOp43
 70
     0
102
RTVSPost2010Prop44ColorIndex
 90
        5
102
RTVSPost2010Prop44ColorRGB
 90
      255
102
RTVSPost2010PropOp44
 70
     0
102
RTVSPost2010Prop45
280
     0
102
RTVSPost2010PropOp45
 70
     0
102
RTVSPost2010Prop46
 90
       50
102
RTVSPost2010PropOp46
 70
     0
102
RTVSPost2010Prop47
 90
       50
102
RTVSPost2010PropOp47
 70
     0
102
RTVSPost2010Prop48
 90
       50
102
RTVSPost2010PropOp48
 70
     0
102
RTVSPost2010Prop49
280
     0
102
RTVSPost2010PropOp49
 70
     0
102
RTVSPost2010Prop50
 90
       50
102
RTVSPost2010PropOp50
 70
     0
102
RTVSPost2010Prop51ColorIndex
 90
      256
102
RTVSPost2010Prop51ColorRGB
 90
-16777216
102
RTVSPost2010PropOp51
 70
     0
102
RTVSPost2010Prop52
140
1.0
102
RTVSPost2010PropOp52
 70
     0
102
RTVSPost2010Prop53
 90
        2
102
RTVSPost2010PropOp53
 70
     0
102
RTVSPost2010Prop54
  1
strokes_ogs.tif
102
RTVSPost2010PropOp54
 70
     0
102
RTVSPost2010Prop55
280
     0
102
RTVSPost2010PropOp55
 70
     0
102
RTVSPost2010Prop56
140
1.0
102
RTVSPost2010PropOp56
 70
     0
102
RTVSPost2010Prop57
140
1.0
102
RTVSPost2010PropOp57
 70
     0
  0
XRECORD
  5
341
102
{ACAD_REACTORS
330
340
102
}
330
340
100
AcDbXrecord
280
     1
102
RTVSPropertyOp0
 70
     1
102
RTVSPropertyOp1
 70
     1
102
RTVSPropertyOp2
 70
     1
102
RTVSPropertyOp3
 70
     1
102
RTVSPropertyOp4
 70
     1
102
RTVSPropertyOp5
 70
     1
102
RTVSPropertyOp6
 70
     1
102
RTVSPropertyOp7
 70
     1
102
RTVSPropertyOp8
 70
     1
102
RTVSPropertyOp9
 70
     1
102
RTVSPropertyOp10
 70
     1
102
RTVSPropertyOp11
 70
     1
102
RTVSPropertyOp12
 70
     1
102
RTVSPropertyOp13
 70
     1
102
RTVSPropertyOp14
 70
     1
102
RTVSPropertyOp15
 70
     1
102
RTVSPropertyOp16
 70
     1
102
RTVSPropertyOp17
 70
     1
102
RTVSPropertyOp18
 70
     1
102
RTVSPropertyOp19
 70
     1
102
RTVSPropertyOp20
 70
     1
102
RTVSPropertyOp21
 70
     1
102
RTVSPropertyOp22
 70
     1
102
RTVSPropertyOp23
 70
     1
102
RTVSPropertyOp24
 70
     1
102
RTVSPropertyOp25
 70
     1
102
RTVSPropertyOp26
 70
     1
102
RTVSPropertyOp27
 70
     1
102
RTVSPropertyOp28
 70
     1
102
RTVSPropertyOp29
 70
     1
102
RTVSPropertyOp30
 70
     1
102
RTVSPropertyOp31
 70
     1
102
RTVSPropertyOp32
 70
     1
102
RTVSPropertyOp33
 70
     1
102
RTVSPropertyOp34
 70
     1
102
RTVSPropertyOp35
 70
     1
102
RTVSPropertyOp36
 70
     1
102
RTVSPropertyOp37
 70
     1
102
RTVSPropertyOp38
 70
     1
102
RTVSPropertyOp39
 70
     1
102
RTVSPropertyOp40
 70
     1
102
RTVSPropertyOp41
 70
     1
102
RTVSPropertyOp42
 70
     1
102
RTVSPropertyOp43
 70
     1
102
RTVSPropertyOp44
 70
     1
102
RTVSPropertyOp45
 70
     1
102
RTVSPropertyOp46
 70
     1
102
RTVSPropertyOp47
 70
     1
102
RTVSPropertyOp48
 70
     1
102
RTVSPropertyOp49
 70
     1
102
RTVSPropertyOp50
 70
     1
102
RTVSPropertyOp51
 70
     0
102
RTVSPropertyOp52
 70
     0
102
RTVSPropertyOp53
 70
     1
102
RTVSPropertyOp54
 70
     1
102
RTVSPropertyOp55
 70
     1
102
RTVSPropertyOp56
 70
     1
102
RTVSPropertyOp57
 70
     1
102
RTVSPost2010Prop28
280
     0
102
RTVSPost2010PropOp28
 70
     1
102
RTVSPost2010Prop29
280
     1
102
RTVSPost2010PropOp29
 70
     1
102
RTVSPost2010Prop30
280
     1
102
RTVSPost2010PropOp30
 70
     1
102
RTVSPost2010Prop31
280
     0
102
RTVSPost2010PropOp31
 70
     1
102
RTVSPost2010Prop32
280
     0
102
RTVSPost2010PropOp32
 70
     1
102
RTVSPost2010Prop33
280
     0
102
RTVSPost2010PropOp33
 70
     1
102
RTVSPost2010Prop34
280
     0
102
RTVSPost2010PropOp34
 70
     1
102
RTVSPost2010Prop35
280
     0
102
RTVSPost2010PropOp35
 70
     1
102
RTVSPost2010Prop36
280
     0
102
RTVSPost2010PropOp36
 70
     1
102
RTVSPost2010Prop37
 90
       50
102
RTVSPost2010PropOp37
 70
     1
102
RTVSPost2010Prop38
140
0.0
102
RTVSPost2010PropOp38
 70
     1
102
RTVSPost2010Prop39
140
1.0
102
RTVSPost2010PropOp39
 70
     1
102
RTVSPost2010Prop40
 90
        0
102
RTVSPost2010PropOp40
 70
     1
102
RTVSPost2010Prop41ColorIndex
 90
       18
102
RTVSPost2010Prop41ColorRGB
 90
        0
102
RTVSPost2010PropOp41
 70
     1
102
RTVSPost2010Prop42
 90
       50
102
RTVSPost2010PropOp42
 70
     1
102
RTVSPost2010Prop43
 90
        3
102
RTVSPost2010PropOp43
 70
     1
102
RTVSPost2010Prop44ColorIndex
 90
        5
102
RTVSPost2010Prop44ColorRGB
 90
      255
102
RTVSPost2010PropOp44
 70
     1
102
RTVSPost2010Prop45
280
     0
102
RTVSPost2010PropOp45
 70
     1
102
RTVSPost2010Prop46
 90
       50
102
RTVSPost2010PropOp46
 70
     1
102
RTVSPost2010Prop47
 90
       50
102
RTVSPost2010PropOp47
 70
     1
102
RTVSPost2010Prop48
 90
       50
102
RTVSPost2010PropOp48
 70
     1
102
RTVSPost2010Prop49
280
     0
102
RTVSPost2010PropOp49
 70
     1
102
RTVSPost2010Prop50
 90
       50
102
RTVSPost2010PropOp50
 70
     1
102
RTVSPost2010Prop51ColorIndex
 90
      256
102
RTVSPost2010Prop51ColorRGB
 90
-16777216
102
RTVSPost2010PropOp51
 70
     0
102
RTVSPost2010Prop52
140
1.0
102
RTVSPost2010PropOp52
 70
     0
102
RTVSPost2010Prop53
 90
        2
102
RTVSPost2010PropOp53
 70
     1
102
RTVSPost2010Prop54
  1
strokes_ogs.tif
102
RTVSPost2010PropOp54
 70
     1
102
RTVSPost2010Prop55
280
     0
102
RTVSPost2010PropOp55
 70
     1
102
RTVSPost2010Prop56
140
1.0
102
RTVSPost2010PropOp56
 70
     1
102
RTVSPost2010Prop57
140
1.0
102
RTVSPost2010PropOp57
 70
     1
  0
XRECORD
  5
349
102
{ACAD_REACTORS
330
348
102
}
330
348
100
AcDbXrecord
280
     1
102
RTVSPropertyOp0
 70
     0
102
RTVSPropertyOp1
 70
     0
102
RTVSPropertyOp2
 70
     0
102
RTVSPropertyOp3
 70
     0
102
RTVSPropertyOp4
 70
     0
102
RTVSPropertyOp5
 70
     0
102
RTVSPropertyOp6
 70
     0
102
RTVSPropertyOp7
 70
     0
102
RTVSPropertyOp8
 70
     0
102
RTVSPropertyOp9
 70
     0
102
RTVSPropertyOp10
 70
     0
102
RTVSPropertyOp11
 70
     0
102
RTVSPropertyOp12
 70
     0
102
RTVSPropertyOp13
 70
     0
102
RTVSPropertyOp14
 70
     2
102
RTVSPropertyOp15
 70
     0
102
RTVSPropertyOp16
 70
     0
102
RTVSPropertyOp17
 70
     0
102
RTVSPropertyOp18
 70
     0
102
RTVSPropertyOp19
 70
     0
102
RTVSPropertyOp20
 70
     0
102
RTVSPropertyOp21
 70
     0
102
RTVSPropertyOp22
 70
     0
102
RTVSPropertyOp23
 70
     0
102
RTVSPropertyOp24
 70
     0
102
RTVSPropertyOp25
 70
     0
102
RTVSPropertyOp26
 70
     0
102
RTVSPropertyOp27
 70
     0
102
RTVSPropertyOp28
 70
     0
102
RTVSPropertyOp29
 70
     0
102
RTVSPropertyOp30
 70
     0
102
RTVSPropertyOp31
 70
     0
102
RTVSPropertyOp32
 70
     0
102
RTVSPropertyOp33
 70
     0
102
RTVSPropertyOp34
 70
     0
102
RTVSPropertyOp35
 70
     0
102
RTVSPropertyOp36
 70
     0
102
RTVSPropertyOp37
 70
     0
102
RTVSPropertyOp38
 70
     0
102
RTVSPropertyOp39
 70
     0
102
RTVSPropertyOp40
 70
     0
102
RTVSPropertyOp41
 70
     0
102
RTVSPropertyOp42
 70
     0
102
RTVSPropertyOp43
 70
     0
102
RTVSPropertyOp44
 70
     0
102
RTVSPropertyOp45
 70
     0
102
RTVSPropertyOp46
 70
     0
102
RTVSPropertyOp47
 70
     0
102
RTVSPropertyOp48
 70
     0
102
RTVSPropertyOp49
 70
     0
102
RTVSPropertyOp50
 70
     0
102
RTVSPropertyOp51
 70
     0
102
RTVSPropertyOp52
 70
     0
102
RTVSPropertyOp53
 70
     0
102
RTVSPropertyOp54
 70
     0
102
RTVSPropertyOp55
 70
     0
102
RTVSPropertyOp56
 70
     0
102
RTVSPropertyOp57
 70
     0
102
RTVSPost2010Prop28
280
     0
102
RTVSPost2010PropOp28
 70
     0
102
RTVSPost2010Prop29
280
     1
102
RTVSPost2010PropOp29
 70
     0
102
RTVSPost2010Prop30
280
     1
102
RTVSPost2010PropOp30
 70
     0
102
RTVSPost2010Prop31
280
     0
102
RTVSPost2010PropOp31
 70
     0
102
RTVSPost2010Prop32
280
     0
102
RTVSPost2010PropOp32
 70
     0
102
RTVSPost2010Prop33
280
     0
102
RTVSPost2010PropOp33
 70
     0
102
RTVSPost2010Prop34
280
     0
102
RTVSPost2010PropOp34
 70
     0
102
RTVSPost2010Prop35
280
     0
102
RTVSPost2010PropOp35
 70
     0
102
RTVSPost2010Prop36
280
     0
102
RTVSPost2010PropOp36
 70
     0
102
RTVSPost2010Prop37
 90
       50
102
RTVSPost2010PropOp37
 70
     0
102
RTVSPost2010Prop38
140
0.0
102
RTVSPost2010PropOp38
 70
     0
102
RTVSPost2010Prop39
140
1.0
102
RTVSPost2010PropOp39
 70
     0
102
RTVSPost2010Prop40
 90
        0
102
RTVSPost2010PropOp40
 70
     0
102
RTVSPost2010Prop41ColorIndex
 90
       18
102
RTVSPost2010Prop41ColorRGB
 90
        0
102
RTVSPost2010PropOp41
 70
     0
102
RTVSPost2010Prop42
 90
       50
102
RTVSPost2010PropOp42
 70
     0
102
RTVSPost2010Prop43
 90
        3
102
RTVSPost2010PropOp43
 70
     0
102
RTVSPost2010Prop44ColorIndex
 90
        5
102
RTVSPost2010Prop44ColorRGB
 90
      255
102
RTVSPost2010PropOp44
 70
     0
102
RTVSPost2010Prop45
280
     0
102
RTVSPost2010PropOp45
 70
     0
102
RTVSPost2010Prop46
 90
       50
102
RTVSPost2010PropOp46
 70
     0
102
RTVSPost2010Prop47
 90
       50
102
RTVSPost2010PropOp47
 70
     0
102
RTVSPost2010Prop48
 90
       50
102
RTVSPost2010PropOp48
 70
     0
102
RTVSPost2010Prop49
280
     0
102
RTVSPost2010PropOp49
 70
     0
102
RTVSPost2010Prop50
 90
       50
102
RTVSPost2010PropOp50
 70
     0
102
RTVSPost2010Prop51ColorIndex
 90
      256
102
RTVSPost2010Prop51ColorRGB
 90
-16777216
102
RTVSPost2010PropOp51
 70
     0
102
RTVSPost2010Prop52
140
1.0
102
RTVSPost2010PropOp52
 70
     0
102
RTVSPost2010Prop53
 90
        2
102
RTVSPost2010PropOp53
 70
     0
102
RTVSPost2010Prop54
  1
strokes_ogs.tif
102
RTVSPost2010PropOp54
 70
     0
102
RTVSPost2010Prop55
280
     0
102
RTVSPost2010PropOp55
 70
     0
102
RTVSPost2010Prop56
140
1.0
102
RTVSPost2010PropOp56
 70
     0
102
RTVSPost2010Prop57
140
1.0
102
RTVSPost2010PropOp57
 70
     0
  0
XRECORD
  5
337
102
{ACAD_REACTORS
330
336
102
}
330
336
100
AcDbXrecord
280
     1
102
RTVSPropertyOp0
 70
     1
102
RTVSPropertyOp1
 70
     1
102
RTVSPropertyOp2
 70
     1
102
RTVSPropertyOp3
 70
     1
102
RTVSPropertyOp4
 70
     1
102
RTVSPropertyOp5
 70
     1
102
RTVSPropertyOp6
 70
     1
102
RTVSPropertyOp7
 70
     1
102
RTVSPropertyOp8
 70
     1
102
RTVSPropertyOp9
 70
     1
102
RTVSPropertyOp10
 70
     1
102
RTVSPropertyOp11
 70
     1
102
RTVSPropertyOp12
 70
     1
102
RTVSPropertyOp13
 70
     1
102
RTVSPropertyOp14
 70
     1
102
RTVSPropertyOp15
 70
     1
102
RTVSPropertyOp16
 70
     1
102
RTVSPropertyOp17
 70
     1
102
RTVSPropertyOp18
 70
     1
102
RTVSPropertyOp19
 70
     1
102
RTVSPropertyOp20
 70
     1
102
RTVSPropertyOp21
 70
     1
102
RTVSPropertyOp22
 70
     1
102
RTVSPropertyOp23
 70
     1
102
RTVSPropertyOp24
 70
     1
102
RTVSPropertyOp25
 70
     1
102
RTVSPropertyOp26
 70
     1
102
RTVSPropertyOp27
 70
     1
102
RTVSPropertyOp28
 70
     1
102
RTVSPropertyOp29
 70
     1
102
RTVSPropertyOp30
 70
     1
102
RTVSPropertyOp31
 70
     1
102
RTVSPropertyOp32
 70
     1
102
RTVSPropertyOp33
 70
     1
102
RTVSPropertyOp34
 70
     1
102
RTVSPropertyOp35
 70
     1
102
RTVSPropertyOp36
 70
     1
102
RTVSPropertyOp37
 70
     1
102
RTVSPropertyOp38
 70
     1
102
RTVSPropertyOp39
 70
     1
102
RTVSPropertyOp40
 70
     1
102
RTVSPropertyOp41
 70
     1
102
RTVSPropertyOp42
 70
     1
102
RTVSPropertyOp43
 70
     1
102
RTVSPropertyOp44
 70
     1
102
RTVSPropertyOp45
 70
     1
102
RTVSPropertyOp46
 70
     1
102
RTVSPropertyOp47
 70
     1
102
RTVSPropertyOp48
 70
     1
102
RTVSPropertyOp49
 70
     1
102
RTVSPropertyOp50
 70
     1
102
RTVSPropertyOp51
 70
     0
102
RTVSPropertyOp52
 70
     0
102
RTVSPropertyOp53
 70
     1
102
RTVSPropertyOp54
 70
     1
102
RTVSPropertyOp55
 70
     1
102
RTVSPropertyOp56
 70
     1
102
RTVSPropertyOp57
 70
     1
102
RTVSPost2010Prop28
280
     0
102
RTVSPost2010PropOp28
 70
     1
102
RTVSPost2010Prop29
280
     1
102
RTVSPost2010PropOp29
 70
     1
102
RTVSPost2010Prop30
280
     1
102
RTVSPost2010PropOp30
 70
     1
102
RTVSPost2010Prop31
280
     0
102
RTVSPost2010PropOp31
 70
     1
102
RTVSPost2010Prop32
280
     0
102
RTVSPost2010PropOp32
 70
     1
102
RTVSPost2010Prop33
280
     0
102
RTVSPost2010PropOp33
 70
     1
102
RTVSPost2010Prop34
280
     0
102
RTVSPost2010PropOp34
 70
     1
102
RTVSPost2010Prop35
280
     0
102
RTVSPost2010PropOp35
 70
     1
102
RTVSPost2010Prop36
280
     0
102
RTVSPost2010PropOp36
 70
     1
102
RTVSPost2010Prop37
 90
       50
102
RTVSPost2010PropOp37
 70
     1
102
RTVSPost2010Prop38
140
0.0
102
RTVSPost2010PropOp38
 70
     1
102
RTVSPost2010Prop39
140
1.0
102
RTVSPost2010PropOp39
 70
     1
102
RTVSPost2010Prop40
 90
        0
102
RTVSPost2010PropOp40
 70
     1
102
RTVSPost2010Prop41ColorIndex
 90
       18
102
RTVSPost2010Prop41ColorRGB
 90
        0
102
RTVSPost2010PropOp41
 70
     1
102
RTVSPost2010Prop42
 90
       50
102
RTVSPost2010PropOp42
 70
     1
102
RTVSPost2010Prop43
 90
        3
102
RTVSPost2010PropOp43
 70
     1
102
RTVSPost2010Prop44ColorIndex
 90
        5
102
RTVSPost2010Prop44ColorRGB
 90
      255
102
RTVSPost2010PropOp44
 70
     1
102
RTVSPost2010Prop45
280
     0
102
RTVSPost2010PropOp45
 70
     1
102
RTVSPost2010Prop46
 90
       50
102
RTVSPost2010PropOp46
 70
     1
102
RTVSPost2010Prop47
 90
       50
102
RTVSPost2010PropOp47
 70
     1
102
RTVSPost2010Prop48
 90
       50
102
RTVSPost2010PropOp48
 70
     1
102
RTVSPost2010Prop49
280
     0
102
RTVSPost2010PropOp49
 70
     1
102
RTVSPost2010Prop50
 90
       50
102
RTVSPost2010PropOp50
 70
     1
102
RTVSPost2010Prop51ColorIndex
 90
      256
102
RTVSPost2010Prop51ColorRGB
 90
-16777216
102
RTVSPost2010PropOp51
 70
     0
102
RTVSPost2010Prop52
140
1.0
102
RTVSPost2010PropOp52
 70
     0
102
RTVSPost2010Prop53
 90
        2
102
RTVSPost2010PropOp53
 70
     1
102
RTVSPost2010Prop54
  1
strokes_ogs.tif
102
RTVSPost2010PropOp54
 70
     1
102
RTVSPost2010Prop55
280
     0
102
RTVSPost2010PropOp55
 70
     1
102
RTVSPost2010Prop56
140
1.0
102
RTVSPost2010PropOp56
 70
     1
102
RTVSPost2010Prop57
140
1.0
102
RTVSPost2010PropOp57
 70
     1
  0
XRECORD
  5
355
102
{ACAD_REACTORS
330
354
102
}
330
354
100
AcDbXrecord
280
     1
102
RTVSPropertyOp0
 70
     1
102
RTVSPropertyOp1
 70
     1
102
RTVSPropertyOp2
 70
     1
102
RTVSPropertyOp3
 70
     1
102
RTVSPropertyOp4
 70
     1
102
RTVSPropertyOp5
 70
     1
102
RTVSPropertyOp6
 70
     1
102
RTVSPropertyOp7
 70
     1
102
RTVSPropertyOp8
 70
     1
102
RTVSPropertyOp9
 70
     1
102
RTVSPropertyOp10
 70
     1
102
RTVSPropertyOp11
 70
     1
102
RTVSPropertyOp12
 70
     1
102
RTVSPropertyOp13
 70
     1
102
RTVSPropertyOp14
 70
     1
102
RTVSPropertyOp15
 70
     1
102
RTVSPropertyOp16
 70
     1
102
RTVSPropertyOp17
 70
     1
102
RTVSPropertyOp18
 70
     1
102
RTVSPropertyOp19
 70
     1
102
RTVSPropertyOp20
 70
     1
102
RTVSPropertyOp21
 70
     1
102
RTVSPropertyOp22
 70
     1
102
RTVSPropertyOp23
 70
     1
102
RTVSPropertyOp24
 70
     1
102
RTVSPropertyOp25
 70
     1
102
RTVSPropertyOp26
 70
     1
102
RTVSPropertyOp27
 70
     1
102
RTVSPropertyOp28
 70
     1
102
RTVSPropertyOp29
 70
     1
102
RTVSPropertyOp30
 70
     1
102
RTVSPropertyOp31
 70
     1
102
RTVSPropertyOp32
 70
     1
102
RTVSPropertyOp33
 70
     1
102
RTVSPropertyOp34
 70
     1
102
RTVSPropertyOp35
 70
     1
102
RTVSPropertyOp36
 70
     1
102
RTVSPropertyOp37
 70
     1
102
RTVSPropertyOp38
 70
     1
102
RTVSPropertyOp39
 70
     1
102
RTVSPropertyOp40
 70
     1
102
RTVSPropertyOp41
 70
     1
102
RTVSPropertyOp42
 70
     1
102
RTVSPropertyOp43
 70
     1
102
RTVSPropertyOp44
 70
     1
102
RTVSPropertyOp45
 70
     1
102
RTVSPropertyOp46
 70
     1
102
RTVSPropertyOp47
 70
     1
102
RTVSPropertyOp48
 70
     1
102
RTVSPropertyOp49
 70
     1
102
RTVSPropertyOp50
 70
     1
102
RTVSPropertyOp51
 70
     0
102
RTVSPropertyOp52
 70
     0
102
RTVSPropertyOp53
 70
     1
102
RTVSPropertyOp54
 70
     1
102
RTVSPropertyOp55
 70
     1
102
RTVSPropertyOp56
 70
     1
102
RTVSPropertyOp57
 70
     1
102
RTVSPost2010Prop28
280
     0
102
RTVSPost2010PropOp28
 70
     1
102
RTVSPost2010Prop29
280
     1
102
RTVSPost2010PropOp29
 70
     1
102
RTVSPost2010Prop30
280
     1
102
RTVSPost2010PropOp30
 70
     1
102
RTVSPost2010Prop31
280
     0
102
RTVSPost2010PropOp31
 70
     1
102
RTVSPost2010Prop32
280
     0
102
RTVSPost2010PropOp32
 70
     1
102
RTVSPost2010Prop33
280
     0
102
RTVSPost2010PropOp33
 70
     1
102
RTVSPost2010Prop34
280
     0
102
RTVSPost2010PropOp34
 70
     1
102
RTVSPost2010Prop35
280
     0
102
RTVSPost2010PropOp35
 70
     1
102
RTVSPost2010Prop36
280
     0
102
RTVSPost2010PropOp36
 70
     1
102
RTVSPost2010Prop37
 90
       50
102
RTVSPost2010PropOp37
 70
     1
102
RTVSPost2010Prop38
140
0.0
102
RTVSPost2010PropOp38
 70
     1
102
RTVSPost2010Prop39
140
1.0
102
RTVSPost2010PropOp39
 70
     1
102
RTVSPost2010Prop40
 90
        0
102
RTVSPost2010PropOp40
 70
     1
102
RTVSPost2010Prop41ColorIndex
 90
       18
102
RTVSPost2010Prop41ColorRGB
 90
        0
102
RTVSPost2010PropOp41
 70
     1
102
RTVSPost2010Prop42
 90
       50
102
RTVSPost2010PropOp42
 70
     1
102
RTVSPost2010Prop43
 90
        3
102
RTVSPost2010PropOp43
 70
     1
102
RTVSPost2010Prop44ColorIndex
 90
        5
102
RTVSPost2010Prop44ColorRGB
 90
      255
102
RTVSPost2010PropOp44
 70
     1
102
RTVSPost2010Prop45
280
     0
102
RTVSPost2010PropOp45
 70
     1
102
RTVSPost2010Prop46
 90
       50
102
RTVSPost2010PropOp46
 70
     1
102
RTVSPost2010Prop47
 90
       50
102
RTVSPost2010PropOp47
 70
     1
102
RTVSPost2010Prop48
 90
       50
102
RTVSPost2010PropOp48
 70
     1
102
RTVSPost2010Prop49
280
     0
102
RTVSPost2010PropOp49
 70
     1
102
RTVSPost2010Prop50
 90
       50
102
RTVSPost2010PropOp50
 70
     1
102
RTVSPost2010Prop51ColorIndex
 90
      256
102
RTVSPost2010Prop51ColorRGB
 90
-16777216
102
RTVSPost2010PropOp51
 70
     0
102
RTVSPost2010Prop52
140
1.0
102
RTVSPost2010PropOp52
 70
     0
102
RTVSPost2010Prop53
 90
        2
102
RTVSPost2010PropOp53
 70
     1
102
RTVSPost2010Prop54
  1
strokes_ogs.tif
102
RTVSPost2010PropOp54
 70
     1
102
RTVSPost2010Prop55
280
     0
102
RTVSPost2010PropOp55
 70
     1
102
RTVSPost2010Prop56
140
1.0
102
RTVSPost2010PropOp56
 70
     1
102
RTVSPost2010Prop57
140
1.0
102
RTVSPost2010PropOp57
 70
     1
  0
XRECORD
  5
353
102
{ACAD_REACTORS
330
352
102
}
330
352
100
AcDbXrecord
280
     1
102
RTVSPropertyOp0
 70
     1
102
RTVSPropertyOp1
 70
     1
102
RTVSPropertyOp2
 70
     1
102
RTVSPropertyOp3
 70
     1
102
RTVSPropertyOp4
 70
     1
102
RTVSPropertyOp5
 70
     1
102
RTVSPropertyOp6
 70
     1
102
RTVSPropertyOp7
 70
     1
102
RTVSPropertyOp8
 70
     1
102
RTVSPropertyOp9
 70
     1
102
RTVSPropertyOp10
 70
     1
102
RTVSPropertyOp11
 70
     1
102
RTVSPropertyOp12
 70
     1
102
RTVSPropertyOp13
 70
     1
102
RTVSPropertyOp14
 70
     1
102
RTVSPropertyOp15
 70
     1
102
RTVSPropertyOp16
 70
     1
102
RTVSPropertyOp17
 70
     1
102
RTVSPropertyOp18
 70
     1
102
RTVSPropertyOp19
 70
     1
102
RTVSPropertyOp20
 70
     1
102
RTVSPropertyOp21
 70
     1
102
RTVSPropertyOp22
 70
     1
102
RTVSPropertyOp23
 70
     1
102
RTVSPropertyOp24
 70
     1
102
RTVSPropertyOp25
 70
     1
102
RTVSPropertyOp26
 70
     1
102
RTVSPropertyOp27
 70
     1
102
RTVSPropertyOp28
 70
     1
102
RTVSPropertyOp29
 70
     1
102
RTVSPropertyOp30
 70
     1
102
RTVSPropertyOp31
 70
     1
102
RTVSPropertyOp32
 70
     1
102
RTVSPropertyOp33
 70
     1
102
RTVSPropertyOp34
 70
     1
102
RTVSPropertyOp35
 70
     1
102
RTVSPropertyOp36
 70
     1
102
RTVSPropertyOp37
 70
     1
102
RTVSPropertyOp38
 70
     1
102
RTVSPropertyOp39
 70
     1
102
RTVSPropertyOp40
 70
     1
102
RTVSPropertyOp41
 70
     1
102
RTVSPropertyOp42
 70
     1
102
RTVSPropertyOp43
 70
     1
102
RTVSPropertyOp44
 70
     1
102
RTVSPropertyOp45
 70
     1
102
RTVSPropertyOp46
 70
     1
102
RTVSPropertyOp47
 70
     1
102
RTVSPropertyOp48
 70
     1
102
RTVSPropertyOp49
 70
     1
102
RTVSPropertyOp50
 70
     1
102
RTVSPropertyOp51
 70
     0
102
RTVSPropertyOp52
 70
     0
102
RTVSPropertyOp53
 70
     1
102
RTVSPropertyOp54
 70
     1
102
RTVSPropertyOp55
 70
     1
102
RTVSPropertyOp56
 70
     1
102
RTVSPropertyOp57
 70
     1
102
RTVSPost2010Prop28
280
     0
102
RTVSPost2010PropOp28
 70
     1
102
RTVSPost2010Prop29
280
     1
102
RTVSPost2010PropOp29
 70
     1
102
RTVSPost2010Prop30
280
     1
102
RTVSPost2010PropOp30
 70
     1
102
RTVSPost2010Prop31
280
     0
102
RTVSPost2010PropOp31
 70
     1
102
RTVSPost2010Prop32
280
     0
102
RTVSPost2010PropOp32
 70
     1
102
RTVSPost2010Prop33
280
     0
102
RTVSPost2010PropOp33
 70
     1
102
RTVSPost2010Prop34
280
     0
102
RTVSPost2010PropOp34
 70
     1
102
RTVSPost2010Prop35
280
     0
102
RTVSPost2010PropOp35
 70
     1
102
RTVSPost2010Prop36
280
     0
102
RTVSPost2010PropOp36
 70
     1
102
RTVSPost2010Prop37
 90
       50
102
RTVSPost2010PropOp37
 70
     1
102
RTVSPost2010Prop38
140
0.0
102
RTVSPost2010PropOp38
 70
     1
102
RTVSPost2010Prop39
140
1.0
102
RTVSPost2010PropOp39
 70
     1
102
RTVSPost2010Prop40
 90
        0
102
RTVSPost2010PropOp40
 70
     1
102
RTVSPost2010Prop41ColorIndex
 90
       18
102
RTVSPost2010Prop41ColorRGB
 90
        0
102
RTVSPost2010PropOp41
 70
     1
102
RTVSPost2010Prop42
 90
       50
102
RTVSPost2010PropOp42
 70
     1
102
RTVSPost2010Prop43
 90
        3
102
RTVSPost2010PropOp43
 70
     1
102
RTVSPost2010Prop44ColorIndex
 90
        5
102
RTVSPost2010Prop44ColorRGB
 90
      255
102
RTVSPost2010PropOp44
 70
     1
102
RTVSPost2010Prop45
280
     0
102
RTVSPost2010PropOp45
 70
     1
102
RTVSPost2010Prop46
 90
       50
102
RTVSPost2010PropOp46
 70
     1
102
RTVSPost2010Prop47
 90
       50
102
RTVSPost2010PropOp47
 70
     1
102
RTVSPost2010Prop48
 90
       50
102
RTVSPost2010PropOp48
 70
     1
102
RTVSPost2010Prop49
280
     0
102
RTVSPost2010PropOp49
 70
     1
102
RTVSPost2010Prop50
 90
       50
102
RTVSPost2010PropOp50
 70
     1
102
RTVSPost2010Prop51ColorIndex
 90
      256
102
RTVSPost2010Prop51ColorRGB
 90
-16777216
102
RTVSPost2010PropOp51
 70
     0
102
RTVSPost2010Prop52
140
1.0
102
RTVSPost2010PropOp52
 70
     0
102
RTVSPost2010Prop53
 90
        2
102
RTVSPost2010PropOp53
 70
     1
102
RTVSPost2010Prop54
  1
strokes_ogs.tif
102
RTVSPost2010PropOp54
 70
     1
102
RTVSPost2010Prop55
280
     0
102
RTVSPost2010PropOp55
 70
     1
102
RTVSPost2010Prop56
140
1.0
102
RTVSPost2010PropOp56
 70
     1
102
RTVSPost2010Prop57
140
1.0
102
RTVSPost2010PropOp57
 70
     1
  0
XRECORD
  5
34D
102
{ACAD_REACTORS
330
34C
102
}
330
34C
100
AcDbXrecord
280
     1
102
RTVSPropertyOp0
 70
     1
102
RTVSPropertyOp1
 70
     1
102
RTVSPropertyOp2
 70
     1
102
RTVSPropertyOp3
 70
     1
102
RTVSPropertyOp4
 70
     1
102
RTVSPropertyOp5
 70
     1
102
RTVSPropertyOp6
 70
     1
102
RTVSPropertyOp7
 70
     1
102
RTVSPropertyOp8
 70
     1
102
RTVSPropertyOp9
 70
     1
102
RTVSPropertyOp10
 70
     1
102
RTVSPropertyOp11
 70
     1
102
RTVSPropertyOp12
 70
     1
102
RTVSPropertyOp13
 70
     1
102
RTVSPropertyOp14
 70
     1
102
RTVSPropertyOp15
 70
     1
102
RTVSPropertyOp16
 70
     1
102
RTVSPropertyOp17
 70
     1
102
RTVSPropertyOp18
 70
     1
102
RTVSPropertyOp19
 70
     1
102
RTVSPropertyOp20
 70
     1
102
RTVSPropertyOp21
 70
     1
102
RTVSPropertyOp22
 70
     1
102
RTVSPropertyOp23
 70
     1
102
RTVSPropertyOp24
 70
     1
102
RTVSPropertyOp25
 70
     1
102
RTVSPropertyOp26
 70
     1
102
RTVSPropertyOp27
 70
     1
102
RTVSPropertyOp28
 70
     1
102
RTVSPropertyOp29
 70
     1
102
RTVSPropertyOp30
 70
     1
102
RTVSPropertyOp31
 70
     1
102
RTVSPropertyOp32
 70
     1
102
RTVSPropertyOp33
 70
     1
102
RTVSPropertyOp34
 70
     1
102
RTVSPropertyOp35
 70
     1
102
RTVSPropertyOp36
 70
     1
102
RTVSPropertyOp37
 70
     1
102
RTVSPropertyOp38
 70
     1
102
RTVSPropertyOp39
 70
     1
102
RTVSPropertyOp40
 70
     1
102
RTVSPropertyOp41
 70
     1
102
RTVSPropertyOp42
 70
     1
102
RTVSPropertyOp43
 70
     1
102
RTVSPropertyOp44
 70
     1
102
RTVSPropertyOp45
 70
     1
102
RTVSPropertyOp46
 70
     1
102
RTVSPropertyOp47
 70
     1
102
RTVSPropertyOp48
 70
     1
102
RTVSPropertyOp49
 70
     1
102
RTVSPropertyOp50
 70
     1
102
RTVSPropertyOp51
 70
     0
102
RTVSPropertyOp52
 70
     0
102
RTVSPropertyOp53
 70
     1
102
RTVSPropertyOp54
 70
     1
102
RTVSPropertyOp55
 70
     1
102
RTVSPropertyOp56
 70
     1
102
RTVSPropertyOp57
 70
     1
102
RTVSPost2010Prop28
280
     0
102
RTVSPost2010PropOp28
 70
     1
102
RTVSPost2010Prop29
280
     1
102
RTVSPost2010PropOp29
 70
     1
102
RTVSPost2010Prop30
280
     1
102
RTVSPost2010PropOp30
 70
     1
102
RTVSPost2010Prop31
280
     0
102
RTVSPost2010PropOp31
 70
     1
102
RTVSPost2010Prop32
280
     0
102
RTVSPost2010PropOp32
 70
     1
102
RTVSPost2010Prop33
280
     0
102
RTVSPost2010PropOp33
 70
     1
102
RTVSPost2010Prop34
280
     0
102
RTVSPost2010PropOp34
 70
     1
102
RTVSPost2010Prop35
280
     0
102
RTVSPost2010PropOp35
 70
     1
102
RTVSPost2010Prop36
280
     0
102
RTVSPost2010PropOp36
 70
     1
102
RTVSPost2010Prop37
 90
       50
102
RTVSPost2010PropOp37
 70
     1
102
RTVSPost2010Prop38
140
0.0
102
RTVSPost2010PropOp38
 70
     1
102
RTVSPost2010Prop39
140
1.0
102
RTVSPost2010PropOp39
 70
     1
102
RTVSPost2010Prop40
 90
        0
102
RTVSPost2010PropOp40
 70
     1
102
RTVSPost2010Prop41ColorIndex
 90
       18
102
RTVSPost2010Prop41ColorRGB
 90
        0
102
RTVSPost2010PropOp41
 70
     1
102
RTVSPost2010Prop42
 90
       50
102
RTVSPost2010PropOp42
 70
     1
102
RTVSPost2010Prop43
 90
        3
102
RTVSPost2010PropOp43
 70
     1
102
RTVSPost2010Prop44ColorIndex
 90
        5
102
RTVSPost2010Prop44ColorRGB
 90
      255
102
RTVSPost2010PropOp44
 70
     1
102
RTVSPost2010Prop45
280
     0
102
RTVSPost2010PropOp45
 70
     1
102
RTVSPost2010Prop46
 90
       50
102
RTVSPost2010PropOp46
 70
     1
102
RTVSPost2010Prop47
 90
       50
102
RTVSPost2010PropOp47
 70
     1
102
RTVSPost2010Prop48
 90
       50
102
RTVSPost2010PropOp48
 70
     1
102
RTVSPost2010Prop49
280
     0
102
RTVSPost2010PropOp49
 70
     1
102
RTVSPost2010Prop50
 90
       50
102
RTVSPost2010PropOp50
 70
     1
102
RTVSPost2010Prop51ColorIndex
 90
      256
102
RTVSPost2010Prop51ColorRGB
 90
-16777216
102
RTVSPost2010PropOp51
 70
     0
102
RTVSPost2010Prop52
140
1.0
102
RTVSPost2010PropOp52
 70
     0
102
RTVSPost2010Prop53
 90
        2
102
RTVSPost2010PropOp53
 70
     1
102
RTVSPost2010Prop54
  1
strokes_ogs.tif
102
RTVSPost2010PropOp54
 70
     1
102
RTVSPost2010Prop55
280
     0
102
RTVSPost2010PropOp55
 70
     1
102
RTVSPost2010Prop56
140
1.0
102
RTVSPost2010PropOp56
 70
     1
102
RTVSPost2010Prop57
140
1.0
102
RTVSPost2010PropOp57
 70
     1
  0
XRECORD
  5
34F
102
{ACAD_REACTORS
330
34E
102
}
330
34E
100
AcDbXrecord
280
     1
102
RTVSPropertyOp0
 70
     1
102
RTVSPropertyOp1
 70
     1
102
RTVSPropertyOp2
 70
     1
102
RTVSPropertyOp3
 70
     1
102
RTVSPropertyOp4
 70
     1
102
RTVSPropertyOp5
 70
     1
102
RTVSPropertyOp6
 70
     1
102
RTVSPropertyOp7
 70
     1
102
RTVSPropertyOp8
 70
     1
102
RTVSPropertyOp9
 70
     1
102
RTVSPropertyOp10
 70
     1
102
RTVSPropertyOp11
 70
     1
102
RTVSPropertyOp12
 70
     1
102
RTVSPropertyOp13
 70
     1
102
RTVSPropertyOp14
 70
     1
102
RTVSPropertyOp15
 70
     1
102
RTVSPropertyOp16
 70
     1
102
RTVSPropertyOp17
 70
     1
102
RTVSPropertyOp18
 70
     1
102
RTVSPropertyOp19
 70
     1
102
RTVSPropertyOp20
 70
     1
102
RTVSPropertyOp21
 70
     1
102
RTVSPropertyOp22
 70
     1
102
RTVSPropertyOp23
 70
     1
102
RTVSPropertyOp24
 70
     1
102
RTVSPropertyOp25
 70
     1
102
RTVSPropertyOp26
 70
     1
102
RTVSPropertyOp27
 70
     1
102
RTVSPropertyOp28
 70
     1
102
RTVSPropertyOp29
 70
     1
102
RTVSPropertyOp30
 70
     1
102
RTVSPropertyOp31
 70
     1
102
RTVSPropertyOp32
 70
     1
102
RTVSPropertyOp33
 70
     1
102
RTVSPropertyOp34
 70
     1
102
RTVSPropertyOp35
 70
     1
102
RTVSPropertyOp36
 70
     1
102
RTVSPropertyOp37
 70
     1
102
RTVSPropertyOp38
 70
     1
102
RTVSPropertyOp39
 70
     1
102
RTVSPropertyOp40
 70
     1
102
RTVSPropertyOp41
 70
     1
102
RTVSPropertyOp42
 70
     1
102
RTVSPropertyOp43
 70
     1
102
RTVSPropertyOp44
 70
     1
102
RTVSPropertyOp45
 70
     1
102
RTVSPropertyOp46
 70
     1
102
RTVSPropertyOp47
 70
     1
102
RTVSPropertyOp48
 70
     1
102
RTVSPropertyOp49
 70
     1
102
RTVSPropertyOp50
 70
     1
102
RTVSPropertyOp51
 70
     0
102
RTVSPropertyOp52
 70
     0
102
RTVSPropertyOp53
 70
     1
102
RTVSPropertyOp54
 70
     1
102
RTVSPropertyOp55
 70
     1
102
RTVSPropertyOp56
 70
     1
102
RTVSPropertyOp57
 70
     1
102
RTVSPost2010Prop28
280
     0
102
RTVSPost2010PropOp28
 70
     1
102
RTVSPost2010Prop29
280
     1
102
RTVSPost2010PropOp29
 70
     1
102
RTVSPost2010Prop30
280
     1
102
RTVSPost2010PropOp30
 70
     1
102
RTVSPost2010Prop31
280
     0
102
RTVSPost2010PropOp31
 70
     1
102
RTVSPost2010Prop32
280
     0
102
RTVSPost2010PropOp32
 70
     1
102
RTVSPost2010Prop33
280
     0
102
RTVSPost2010PropOp33
 70
     1
102
RTVSPost2010Prop34
280
     0
102
RTVSPost2010PropOp34
 70
     1
102
RTVSPost2010Prop35
280
     0
102
RTVSPost2010PropOp35
 70
     1
102
RTVSPost2010Prop36
280
     0
102
RTVSPost2010PropOp36
 70
     1
102
RTVSPost2010Prop37
 90
       50
102
RTVSPost2010PropOp37
 70
     1
102
RTVSPost2010Prop38
140
0.0
102
RTVSPost2010PropOp38
 70
     1
102
RTVSPost2010Prop39
140
1.0
102
RTVSPost2010PropOp39
 70
     1
102
RTVSPost2010Prop40
 90
        0
102
RTVSPost2010PropOp40
 70
     1
102
RTVSPost2010Prop41ColorIndex
 90
       18
102
RTVSPost2010Prop41ColorRGB
 90
        0
102
RTVSPost2010PropOp41
 70
     1
102
RTVSPost2010Prop42
 90
       50
102
RTVSPost2010PropOp42
 70
     1
102
RTVSPost2010Prop43
 90
        3
102
RTVSPost2010PropOp43
 70
     1
102
RTVSPost2010Prop44ColorIndex
 90
        5
102
RTVSPost2010Prop44ColorRGB
 90
      255
102
RTVSPost2010PropOp44
 70
     1
102
RTVSPost2010Prop45
280
     0
102
RTVSPost2010PropOp45
 70
     1
102
RTVSPost2010Prop46
 90
       50
102
RTVSPost2010PropOp46
 70
     1
102
RTVSPost2010Prop47
 90
       50
102
RTVSPost2010PropOp47
 70
     1
102
RTVSPost2010Prop48
 90
       50
102
RTVSPost2010PropOp48
 70
     1
102
RTVSPost2010Prop49
280
     0
102
RTVSPost2010PropOp49
 70
     1
102
RTVSPost2010Prop50
 90
       50
102
RTVSPost2010PropOp50
 70
     1
102
RTVSPost2010Prop51ColorIndex
 90
      256
102
RTVSPost2010Prop51ColorRGB
 90
-16777216
102
RTVSPost2010PropOp51
 70
     0
102
RTVSPost2010Prop52
140
1.0
102
RTVSPost2010PropOp52
 70
     0
102
RTVSPost2010Prop53
 90
        2
102
RTVSPost2010PropOp53
 70
     1
102
RTVSPost2010Prop54
  1
strokes_ogs.tif
102
RTVSPost2010PropOp54
 70
     1
102
RTVSPost2010Prop55
280
     0
102
RTVSPost2010PropOp55
 70
     1
102
RTVSPost2010Prop56
140
1.0
102
RTVSPost2010PropOp56
 70
     1
102
RTVSPost2010Prop57
140
1.0
102
RTVSPost2010PropOp57
 70
     1
  0
XRECORD
  5
33F
102
{ACAD_REACTORS
330
33E
102
}
330
33E
100
AcDbXrecord
280
     1
102
RTVSPropertyOp0
 70
     1
102
RTVSPropertyOp1
 70
     1
102
RTVSPropertyOp2
 70
     1
102
RTVSPropertyOp3
 70
     1
102
RTVSPropertyOp4
 70
     1
102
RTVSPropertyOp5
 70
     1
102
RTVSPropertyOp6
 70
     1
102
RTVSPropertyOp7
 70
     1
102
RTVSPropertyOp8
 70
     1
102
RTVSPropertyOp9
 70
     1
102
RTVSPropertyOp10
 70
     1
102
RTVSPropertyOp11
 70
     1
102
RTVSPropertyOp12
 70
     1
102
RTVSPropertyOp13
 70
     1
102
RTVSPropertyOp14
 70
     1
102
RTVSPropertyOp15
 70
     1
102
RTVSPropertyOp16
 70
     1
102
RTVSPropertyOp17
 70
     1
102
RTVSPropertyOp18
 70
     1
102
RTVSPropertyOp19
 70
     1
102
RTVSPropertyOp20
 70
     1
102
RTVSPropertyOp21
 70
     1
102
RTVSPropertyOp22
 70
     1
102
RTVSPropertyOp23
 70
     1
102
RTVSPropertyOp24
 70
     1
102
RTVSPropertyOp25
 70
     1
102
RTVSPropertyOp26
 70
     1
102
RTVSPropertyOp27
 70
     1
102
RTVSPropertyOp28
 70
     1
102
RTVSPropertyOp29
 70
     1
102
RTVSPropertyOp30
 70
     1
102
RTVSPropertyOp31
 70
     1
102
RTVSPropertyOp32
 70
     1
102
RTVSPropertyOp33
 70
     1
102
RTVSPropertyOp34
 70
     1
102
RTVSPropertyOp35
 70
     1
102
RTVSPropertyOp36
 70
     1
102
RTVSPropertyOp37
 70
     1
102
RTVSPropertyOp38
 70
     1
102
RTVSPropertyOp39
 70
     1
102
RTVSPropertyOp40
 70
     1
102
RTVSPropertyOp41
 70
     1
102
RTVSPropertyOp42
 70
     1
102
RTVSPropertyOp43
 70
     1
102
RTVSPropertyOp44
 70
     1
102
RTVSPropertyOp45
 70
     1
102
RTVSPropertyOp46
 70
     1
102
RTVSPropertyOp47
 70
     1
102
RTVSPropertyOp48
 70
     1
102
RTVSPropertyOp49
 70
     1
102
RTVSPropertyOp50
 70
     1
102
RTVSPropertyOp51
 70
     0
102
RTVSPropertyOp52
 70
     0
102
RTVSPropertyOp53
 70
     1
102
RTVSPropertyOp54
 70
     1
102
RTVSPropertyOp55
 70
     1
102
RTVSPropertyOp56
 70
     1
102
RTVSPropertyOp57
 70
     1
102
RTVSPost2010Prop28
280
     0
102
RTVSPost2010PropOp28
 70
     1
102
RTVSPost2010Prop29
280
     1
102
RTVSPost2010PropOp29
 70
     1
102
RTVSPost2010Prop30
280
     1
102
RTVSPost2010PropOp30
 70
     1
102
RTVSPost2010Prop31
280
     0
102
RTVSPost2010PropOp31
 70
     1
102
RTVSPost2010Prop32
280
     0
102
RTVSPost2010PropOp32
 70
     1
102
RTVSPost2010Prop33
280
     0
102
RTVSPost2010PropOp33
 70
     1
102
RTVSPost2010Prop34
280
     0
102
RTVSPost2010PropOp34
 70
     1
102
RTVSPost2010Prop35
280
     0
102
RTVSPost2010PropOp35
 70
     1
102
RTVSPost2010Prop36
280
     0
102
RTVSPost2010PropOp36
 70
     1
102
RTVSPost2010Prop37
 90
       50
102
RTVSPost2010PropOp37
 70
     1
102
RTVSPost2010Prop38
140
0.0
102
RTVSPost2010PropOp38
 70
     1
102
RTVSPost2010Prop39
140
1.0
102
RTVSPost2010PropOp39
 70
     1
102
RTVSPost2010Prop40
 90
        0
102
RTVSPost2010PropOp40
 70
     1
102
RTVSPost2010Prop41ColorIndex
 90
       18
102
RTVSPost2010Prop41ColorRGB
 90
        0
102
RTVSPost2010PropOp41
 70
     1
102
RTVSPost2010Prop42
 90
       50
102
RTVSPost2010PropOp42
 70
     1
102
RTVSPost2010Prop43
 90
        3
102
RTVSPost2010PropOp43
 70
     1
102
RTVSPost2010Prop44ColorIndex
 90
        5
102
RTVSPost2010Prop44ColorRGB
 90
      255
102
RTVSPost2010PropOp44
 70
     1
102
RTVSPost2010Prop45
280
     0
102
RTVSPost2010PropOp45
 70
     1
102
RTVSPost2010Prop46
 90
       50
102
RTVSPost2010PropOp46
 70
     1
102
RTVSPost2010Prop47
 90
       50
102
RTVSPost2010PropOp47
 70
     1
102
RTVSPost2010Prop48
 90
       50
102
RTVSPost2010PropOp48
 70
     1
102
RTVSPost2010Prop49
280
     0
102
RTVSPost2010PropOp49
 70
     1
102
RTVSPost2010Prop50
 90
       50
102
RTVSPost2010PropOp50
 70
     1
102
RTVSPost2010Prop51ColorIndex
 90
      256
102
RTVSPost2010Prop51ColorRGB
 90
-16777216
102
RTVSPost2010PropOp51
 70
     0
102
RTVSPost2010Prop52
140
1.0
102
RTVSPost2010PropOp52
 70
     0
102
RTVSPost2010Prop53
 90
        2
102
RTVSPost2010PropOp53
 70
     1
102
RTVSPost2010Prop54
  1
strokes_ogs.tif
102
RTVSPost2010PropOp54
 70
     1
102
RTVSPost2010Prop55
280
     0
102
RTVSPost2010PropOp55
 70
     1
102
RTVSPost2010Prop56
140
1.0
102
RTVSPost2010PropOp56
 70
     1
102
RTVSPost2010Prop57
140
1.0
102
RTVSPost2010PropOp57
 70
     1
  0
XRECORD
  5
331
102
{ACAD_REACTORS
330
330
102
}
330
330
100
AcDbXrecord
280
     1
102
RTVSPropertyOp0
 70
     1
102
RTVSPropertyOp1
 70
     1
102
RTVSPropertyOp2
 70
     1
102
RTVSPropertyOp3
 70
     1
102
RTVSPropertyOp4
 70
     1
102
RTVSPropertyOp5
 70
     1
102
RTVSPropertyOp6
 70
     1
102
RTVSPropertyOp7
 70
     1
102
RTVSPropertyOp8
 70
     1
102
RTVSPropertyOp9
 70
     1
102
RTVSPropertyOp10
 70
     1
102
RTVSPropertyOp11
 70
     1
102
RTVSPropertyOp12
 70
     1
102
RTVSPropertyOp13
 70
     1
102
RTVSPropertyOp14
 70
     1
102
RTVSPropertyOp15
 70
     1
102
RTVSPropertyOp16
 70
     1
102
RTVSPropertyOp17
 70
     1
102
RTVSPropertyOp18
 70
     1
102
RTVSPropertyOp19
 70
     1
102
RTVSPropertyOp20
 70
     1
102
RTVSPropertyOp21
 70
     1
102
RTVSPropertyOp22
 70
     1
102
RTVSPropertyOp23
 70
     1
102
RTVSPropertyOp24
 70
     1
102
RTVSPropertyOp25
 70
     1
102
RTVSPropertyOp26
 70
     1
102
RTVSPropertyOp27
 70
     1
102
RTVSPropertyOp28
 70
     1
102
RTVSPropertyOp29
 70
     1
102
RTVSPropertyOp30
 70
     1
102
RTVSPropertyOp31
 70
     1
102
RTVSPropertyOp32
 70
     1
102
RTVSPropertyOp33
 70
     1
102
RTVSPropertyOp34
 70
     1
102
RTVSPropertyOp35
 70
     1
102
RTVSPropertyOp36
 70
     1
102
RTVSPropertyOp37
 70
     1
102
RTVSPropertyOp38
 70
     1
102
RTVSPropertyOp39
 70
     1
102
RTVSPropertyOp40
 70
     1
102
RTVSPropertyOp41
 70
     1
102
RTVSPropertyOp42
 70
     1
102
RTVSPropertyOp43
 70
     1
102
RTVSPropertyOp44
 70
     1
102
RTVSPropertyOp45
 70
     1
102
RTVSPropertyOp46
 70
     1
102
RTVSPropertyOp47
 70
     1
102
RTVSPropertyOp48
 70
     1
102
RTVSPropertyOp49
 70
     1
102
RTVSPropertyOp50
 70
     1
102
RTVSPropertyOp51
 70
     0
102
RTVSPropertyOp52
 70
     0
102
RTVSPropertyOp53
 70
     1
102
RTVSPropertyOp54
 70
     1
102
RTVSPropertyOp55
 70
     1
102
RTVSPropertyOp56
 70
     1
102
RTVSPropertyOp57
 70
     1
102
RTVSPost2010Prop28
280
     0
102
RTVSPost2010PropOp28
 70
     1
102
RTVSPost2010Prop29
280
     1
102
RTVSPost2010PropOp29
 70
     1
102
RTVSPost2010Prop30
280
     1
102
RTVSPost2010PropOp30
 70
     1
102
RTVSPost2010Prop31
280
     0
102
RTVSPost2010PropOp31
 70
     1
102
RTVSPost2010Prop32
280
     0
102
RTVSPost2010PropOp32
 70
     1
102
RTVSPost2010Prop33
280
     0
102
RTVSPost2010PropOp33
 70
     1
102
RTVSPost2010Prop34
280
     0
102
RTVSPost2010PropOp34
 70
     1
102
RTVSPost2010Prop35
280
     0
102
RTVSPost2010PropOp35
 70
     1
102
RTVSPost2010Prop36
280
     0
102
RTVSPost2010PropOp36
 70
     1
102
RTVSPost2010Prop37
 90
       50
102
RTVSPost2010PropOp37
 70
     1
102
RTVSPost2010Prop38
140
0.0
102
RTVSPost2010PropOp38
 70
     1
102
RTVSPost2010Prop39
140
1.0
102
RTVSPost2010PropOp39
 70
     1
102
RTVSPost2010Prop40
 90
        0
102
RTVSPost2010PropOp40
 70
     1
102
RTVSPost2010Prop41ColorIndex
 90
       18
102
RTVSPost2010Prop41ColorRGB
 90
        0
102
RTVSPost2010PropOp41
 70
     1
102
RTVSPost2010Prop42
 90
       50
102
RTVSPost2010PropOp42
 70
     1
102
RTVSPost2010Prop43
 90
        3
102
RTVSPost2010PropOp43
 70
     1
102
RTVSPost2010Prop44ColorIndex
 90
        5
102
RTVSPost2010Prop44ColorRGB
 90
      255
102
RTVSPost2010PropOp44
 70
     1
102
RTVSPost2010Prop45
280
     0
102
RTVSPost2010PropOp45
 70
     1
102
RTVSPost2010Prop46
 90
       50
102
RTVSPost2010PropOp46
 70
     1
102
RTVSPost2010Prop47
 90
       50
102
RTVSPost2010PropOp47
 70
     1
102
RTVSPost2010Prop48
 90
       50
102
RTVSPost2010PropOp48
 70
     1
102
RTVSPost2010Prop49
280
     0
102
RTVSPost2010PropOp49
 70
     1
102
RTVSPost2010Prop50
 90
       50
102
RTVSPost2010PropOp50
 70
     1
102
RTVSPost2010Prop51ColorIndex
 90
      256
102
RTVSPost2010Prop51ColorRGB
 90
-16777216
102
RTVSPost2010PropOp51
 70
     0
102
RTVSPost2010Prop52
140
1.0
102
RTVSPost2010PropOp52
 70
     0
102
RTVSPost2010Prop53
 90
        2
102
RTVSPost2010PropOp53
 70
     1
102
RTVSPost2010Prop54
  1
strokes_ogs.tif
102
RTVSPost2010PropOp54
 70
     1
102
RTVSPost2010Prop55
280
     0
102
RTVSPost2010PropOp55
 70
     1
102
RTVSPost2010Prop56
140
1.0
102
RTVSPost2010PropOp56
 70
     1
102
RTVSPost2010Prop57
140
1.0
102
RTVSPost2010PropOp57
 70
     1
  0
XRECORD
  5
351
102
{ACAD_REACTORS
330
350
102
}
330
350
100
AcDbXrecord
280
     1
102
RTVSPropertyOp0
 70
     1
102
RTVSPropertyOp1
 70
     1
102
RTVSPropertyOp2
 70
     1
102
RTVSPropertyOp3
 70
     1
102
RTVSPropertyOp4
 70
     1
102
RTVSPropertyOp5
 70
     1
102
RTVSPropertyOp6
 70
     1
102
RTVSPropertyOp7
 70
     1
102
RTVSPropertyOp8
 70
     1
102
RTVSPropertyOp9
 70
     1
102
RTVSPropertyOp10
 70
     1
102
RTVSPropertyOp11
 70
     1
102
RTVSPropertyOp12
 70
     1
102
RTVSPropertyOp13
 70
     1
102
RTVSPropertyOp14
 70
     1
102
RTVSPropertyOp15
 70
     1
102
RTVSPropertyOp16
 70
     1
102
RTVSPropertyOp17
 70
     1
102
RTVSPropertyOp18
 70
     1
102
RTVSPropertyOp19
 70
     1
102
RTVSPropertyOp20
 70
     1
102
RTVSPropertyOp21
 70
     1
102
RTVSPropertyOp22
 70
     1
102
RTVSPropertyOp23
 70
     1
102
RTVSPropertyOp24
 70
     1
102
RTVSPropertyOp25
 70
     1
102
RTVSPropertyOp26
 70
     1
102
RTVSPropertyOp27
 70
     1
102
RTVSPropertyOp28
 70
     1
102
RTVSPropertyOp29
 70
     1
102
RTVSPropertyOp30
 70
     1
102
RTVSPropertyOp31
 70
     1
102
RTVSPropertyOp32
 70
     1
102
RTVSPropertyOp33
 70
     1
102
RTVSPropertyOp34
 70
     1
102
RTVSPropertyOp35
 70
     1
102
RTVSPropertyOp36
 70
     1
102
RTVSPropertyOp37
 70
     1
102
RTVSPropertyOp38
 70
     1
102
RTVSPropertyOp39
 70
     1
102
RTVSPropertyOp40
 70
     1
102
RTVSPropertyOp41
 70
     1
102
RTVSPropertyOp42
 70
     1
102
RTVSPropertyOp43
 70
     1
102
RTVSPropertyOp44
 70
     1
102
RTVSPropertyOp45
 70
     1
102
RTVSPropertyOp46
 70
     1
102
RTVSPropertyOp47
 70
     1
102
RTVSPropertyOp48
 70
     1
102
RTVSPropertyOp49
 70
     1
102
RTVSPropertyOp50
 70
     1
102
RTVSPropertyOp51
 70
     0
102
RTVSPropertyOp52
 70
     0
102
RTVSPropertyOp53
 70
     1
102
RTVSPropertyOp54
 70
     1
102
RTVSPropertyOp55
 70
     1
102
RTVSPropertyOp56
 70
     1
102
RTVSPropertyOp57
 70
     1
102
RTVSPost2010Prop28
280
     0
102
RTVSPost2010PropOp28
 70
     1
102
RTVSPost2010Prop29
280
     1
102
RTVSPost2010PropOp29
 70
     1
102
RTVSPost2010Prop30
280
     1
102
RTVSPost2010PropOp30
 70
     1
102
RTVSPost2010Prop31
280
     0
102
RTVSPost2010PropOp31
 70
     1
102
RTVSPost2010Prop32
280
     0
102
RTVSPost2010PropOp32
 70
     1
102
RTVSPost2010Prop33
280
     0
102
RTVSPost2010PropOp33
 70
     1
102
RTVSPost2010Prop34
280
     0
102
RTVSPost2010PropOp34
 70
     1
102
RTVSPost2010Prop35
280
     0
102
RTVSPost2010PropOp35
 70
     1
102
RTVSPost2010Prop36
280
     0
102
RTVSPost2010PropOp36
 70
     1
102
RTVSPost2010Prop37
 90
       50
102
RTVSPost2010PropOp37
 70
     1
102
RTVSPost2010Prop38
140
0.0
102
RTVSPost2010PropOp38
 70
     1
102
RTVSPost2010Prop39
140
1.0
102
RTVSPost2010PropOp39
 70
     1
102
RTVSPost2010Prop40
 90
        0
102
RTVSPost2010PropOp40
 70
     1
102
RTVSPost2010Prop41ColorIndex
 90
       18
102
RTVSPost2010Prop41ColorRGB
 90
        0
102
RTVSPost2010PropOp41
 70
     1
102
RTVSPost2010Prop42
 90
       50
102
RTVSPost2010PropOp42
 70
     1
102
RTVSPost2010Prop43
 90
        3
102
RTVSPost2010PropOp43
 70
     1
102
RTVSPost2010Prop44ColorIndex
 90
        5
102
RTVSPost2010Prop44ColorRGB
 90
      255
102
RTVSPost2010PropOp44
 70
     1
102
RTVSPost2010Prop45
280
     0
102
RTVSPost2010PropOp45
 70
     1
102
RTVSPost2010Prop46
 90
       50
102
RTVSPost2010PropOp46
 70
     1
102
RTVSPost2010Prop47
 90
       50
102
RTVSPost2010PropOp47
 70
     1
102
RTVSPost2010Prop48
 90
       50
102
RTVSPost2010PropOp48
 70
     1
102
RTVSPost2010Prop49
280
     0
102
RTVSPost2010PropOp49
 70
     1
102
RTVSPost2010Prop50
 90
       50
102
RTVSPost2010PropOp50
 70
     1
102
RTVSPost2010Prop51ColorIndex
 90
      256
102
RTVSPost2010Prop51ColorRGB
 90
-16777216
102
RTVSPost2010PropOp51
 70
     0
102
RTVSPost2010Prop52
140
1.0
102
RTVSPost2010PropOp52
 70
     0
102
RTVSPost2010Prop53
 90
        2
102
RTVSPost2010PropOp53
 70
     1
102
RTVSPost2010Prop54
  1
strokes_ogs.tif
102
RTVSPost2010PropOp54
 70
     1
102
RTVSPost2010Prop55
280
     0
102
RTVSPost2010PropOp55
 70
     1
102
RTVSPost2010Prop56
140
1.0
102
RTVSPost2010PropOp56
 70
     1
102
RTVSPost2010Prop57
140
1.0
102
RTVSPost2010PropOp57
 70
     1
  0
ENDSEC
  0
EOF
