  0
SECTION
  2
HEADER
  9
$ACADVER
  1
AC1021
  9
$ACADMAINTVER
 70
    25
  9
$DWGCODEPAGE
  3
ANSI_1252
  9
$LASTSAVEDBY
  1
tomba
  9
$INSBASE
 10
0.0
 20
0.0
 30
0.0
  9
$EXTMIN
 10
-22.50000000000012
 20
-62.51263892240405
 30
-70.77506673124022
  9
$EXTMAX
 10
22.50000000000028
 20
38.97114317451133
 30
60.00000000000072
  9
$LIMMIN
 10
0.0
 20
0.0
  9
$LIMMAX
 10
12.0
 20
9.0
  9
$ORTHOMODE
 70
     0
  9
$REGENMODE
 70
     1
  9
$FILLMODE
 70
     1
  9
$QTEXTMODE
 70
     0
  9
$MIRRTEXT
 70
     1
  9
$LTSCALE
 40
1.0
  9
$ATTMODE
 70
     1
  9
$TEXTSIZE
 40
0.2
  9
$TRACEWID
 40
0.05
  9
$TEXTSTYLE
  7
Standard
  9
$CLAYER
  8
Livello 01
  9
$CELTYPE
  6
ByLayer
  9
$CECOLOR
 62
   256
  9
$CELTSCALE
 40
1.0
  9
$DISPSILH
 70
     0
  9
$DIMSCALE
 40
1.0
  9
$DIMASZ
 40
0.18
  9
$DIMEXO
 40
0.0625
  9
$DIMDLI
 40
0.38
  9
$DIMRND
 40
0.0
  9
$DIMDLE
 40
0.0
  9
$DIMEXE
 40
0.18
  9
$DIMTP
 40
0.0
  9
$DIMTM
 40
0.0
  9
$DIMTXT
 40
0.18
  9
$DIMCEN
 40
0.09
  9
$DIMTSZ
 40
0.0
  9
$DIMTOL
 70
     0
  9
$DIMLIM
 70
     0
  9
$DIMTIH
 70
     1
  9
$DIMTOH
 70
     1
  9
$DIMSE1
 70
     0
  9
$DIMSE2
 70
     0
  9
$DIMTAD
 70
     0
  9
$DIMZIN
 70
     0
  9
$DIMBLK
  1

  9
$DIMASO
 70
     1
  9
$DIMSHO
 70
     1
  9
$DIMPOST
  1

  9
$DIMAPOST
  1

  9
$DIMALT
 70
     0
  9
$DIMALTD
 70
     2
  9
$DIMALTF
 40
25.4
  9
$DIMLFAC
 40
1.0
  9
$DIMTOFL
 70
     0
  9
$DIMTVP
 40
0.0
  9
$DIMTIX
 70
     0
  9
$DIMSOXD
 70
     0
  9
$DIMSAH
 70
     0
  9
$DIMBLK1
  1

  9
$DIMBLK2
  1

  9
$DIMSTYLE
  2
STANDARD_ACAD
  9
$DIMCLRD
 70
     0
  9
$DIMCLRE
 70
     0
  9
$DIMCLRT
 70
     0
  9
$DIMTFAC
 40
1.0
  9
$DIMGAP
 40
0.09
  9
$DIMJUST
 70
     0
  9
$DIMSD1
 70
     0
  9
$DIMSD2
 70
     0
  9
$DIMTOLJ
 70
     1
  9
$DIMTZIN
 70
     0
  9
$DIMALTZ
 70
     0
  9
$DIMALTTZ
 70
     0
  9
$DIMUPT
 70
     0
  9
$DIMDEC
 70
     4
  9
$DIMTDEC
 70
     4
  9
$DIMALTU
 70
     2
  9
$DIMALTTD
 70
     2
  9
$DIMTXSTY
  7
Standard
  9
$DIMAUNIT
 70
     0
  9
$DIMADEC
 70
     0
  9
$DIMALTRND
 40
0.0
  9
$DIMAZIN
 70
     0
  9
$DIMDSEP
 70
    46
  9
$DIMATFIT
 70
     3
  9
$DIMFRAC
 70
     0
  9
$DIMLDRBLK
  1

  9
$DIMLUNIT
 70
     2
  9
$DIMLWD
 70
    -2
  9
$DIMLWE
 70
    -2
  9
$DIMTMOVE
 70
     2
  9
$DIMFXL
 40
1.0
  9
$DIMFXLON
 70
     0
  9
$DIMJOGANG
 40
0.7853981633974483
  9
$DIMTFILL
 70
     0
  9
$DIMTFILLCLR
 70
     0
  9
$DIMARCSYM
 70
     0
  9
$DIMLTYPE
  6

  9
$DIMLTEX1
  6

  9
$DIMLTEX2
  6

  9
$LUNITS
 70
     2
  9
$LUPREC
 70
     3
  9
$SKETCHINC
 40
0.1
  9
$FILLETRAD
 40
0.0
  9
$AUNITS
 70
     0
  9
$AUPREC
 70
     0
  9
$MENU
  1
.
  9
$ELEVATION
 40
0.0
  9
$PELEVATION
 40
0.0
  9
$THICKNESS
 40
0.0
  9
$LIMCHECK
 70
     0
  9
$CHAMFERA
 40
0.0
  9
$CHAMFERB
 40
0.0
  9
$CHAMFERC
 40
0.0
  9
$CHAMFERD
 40
0.0
  9
$SKPOLY
 70
     0
  9
$TDCREATE
 40
2460361.472259618
  9
$TDUCREATE
 40
2460361.430592951
  9
$TDUPDATE
 40
2460361.47231978
  9
$TDUUPDATE
 40
2460361.430653113
  9
$TDINDWG
 40
0.0000000116
  9
$TDUSRTIMER
 40
0.0000000116
  9
$USRTIMER
 70
     1
  9
$ANGBASE
 50
0.0
  9
$ANGDIR
 70
     0
  9
$PDMODE
 70
     0
  9
$PDSIZE
 40
0.0
  9
$PLINEWID
 40
0.0
  9
$SPLFRAME
 70
     0
  9
$SPLINETYPE
 70
     6
  9
$SPLINESEGS
 70
     8
  9
$HANDSEED
  5
35C
  9
$SURFTAB1
 70
     6
  9
$SURFTAB2
 70
     6
  9
$SURFTYPE
 70
     6
  9
$SURFU
 70
     6
  9
$SURFV
 70
     6
  9
$UCSBASE
  2

  9
$UCSNAME
  2

  9
$UCSORG
 10
0.0
 20
0.0
 30
0.0
  9
$UCSXDIR
 10
1.0
 20
0.0
 30
0.0
  9
$UCSYDIR
 10
0.0
 20
1.0
 30
0.0
  9
$UCSORTHOREF
  2

  9
$UCSORTHOVIEW
 70
     0
  9
$UCSORGTOP
 10
0.0
 20
0.0
 30
0.0
  9
$UCSORGBOTTOM
 10
0.0
 20
0.0
 30
0.0
  9
$UCSORGLEFT
 10
0.0
 20
0.0
 30
0.0
  9
$UCSORGRIGHT
 10
0.0
 20
0.0
 30
0.0
  9
$UCSORGFRONT
 10
0.0
 20
0.0
 30
0.0
  9
$UCSORGBACK
 10
0.0
 20
0.0
 30
0.0
  9
$PUCSBASE
  2

  9
$PUCSNAME
  2

  9
$PUCSORG
 10
0.0
 20
0.0
 30
0.0
  9
$PUCSXDIR
 10
1.0
 20
0.0
 30
0.0
  9
$PUCSYDIR
 10
0.0
 20
1.0
 30
0.0
  9
$PUCSORTHOREF
  2

  9
$PUCSORTHOVIEW
 70
     0
  9
$PUCSORGTOP
 10
0.0
 20
0.0
 30
0.0
  9
$PUCSORGBOTTOM
 10
0.0
 20
0.0
 30
0.0
  9
$PUCSORGLEFT
 10
0.0
 20
0.0
 30
0.0
  9
$PUCSORGRIGHT
 10
0.0
 20
0.0
 30
0.0
  9
$PUCSORGFRONT
 10
0.0
 20
0.0
 30
0.0
  9
$PUCSORGBACK
 10
0.0
 20
0.0
 30
0.0
  9
$USERI1
 70
     0
  9
$USERI2
 70
     0
  9
$USERI3
 70
     0
  9
$USERI4
 70
     0
  9
$USERI5
 70
     0
  9
$USERR1
 40
0.0
  9
$USERR2
 40
0.0
  9
$USERR3
 40
0.0
  9
$USERR4
 40
0.0
  9
$USERR5
 40
0.0
  9
$WORLDVIEW
 70
     1
  9
$SHADEDGE
 70
     3
  9
$SHADEDIF
 70
    70
  9
$TILEMODE
 70
     1
  9
$MAXACTVP
 70
    64
  9
$PINSBASE
 10
0.0
 20
0.0
 30
0.0
  9
$PLIMCHECK
 70
     0
  9
$PEXTMIN
 10
1.000000000000000E+20
 20
1.000000000000000E+20
 30
1.000000000000000E+20
  9
$PEXTMAX
 10
-1.000000000000000E+20
 20
-1.000000000000000E+20
 30
-1.000000000000000E+20
  9
$PLIMMIN
 10
0.0
 20
0.0
  9
$PLIMMAX
 10
12.0
 20
9.0
  9
$UNITMODE
 70
     0
  9
$VISRETAIN
 70
     1
  9
$PLINEGEN
 70
     0
  9
$PSLTSCALE
 70
     1
  9
$TREEDEPTH
 70
  3020
  9
$CMLSTYLE
  2
Standard
  9
$CMLJUST
 70
     0
  9
$CMLSCALE
 40
1.0
  9
$PROXYGRAPHICS
 70
     1
  9
$MEASUREMENT
 70
     1
  9
$CELWEIGHT
370
    -1
  9
$ENDCAPS
280
     0
  9
$JOINSTYLE
280
     0
  9
$LWDISPLAY
290
     0
  9
$INSUNITS
 70
     4
  9
$HYPERLINKBASE
  1

  9
$STYLESHEET
  1

  9
$XEDIT
290
     1
  9
$CEPSNTYPE
380
     0
  9
$PSTYLEMODE
290
     1
  9
$FINGERPRINTGUID
  2
{df137471-8e35-4733-8816-bf8b3c70d322}
  9
$VERSIONGUID
  2
{FAEB1C32-E019-11D5-929B-00C0DF256EC4}
  9
$EXTNAMES
290
     1
  9
$PSVPSCALE
 40
0.0
  9
$OLESTARTUP
290
     0
  9
$SORTENTS
280
   127
  9
$INDEXCTL
280
     0
  9
$HIDETEXT
280
     1
  9
$XCLIPFRAME
290
     0
  9
$HALOGAP
280
     0
  9
$OBSCOLOR
 70
   257
  9
$OBSLTYPE
280
     0
  9
$INTERSECTIONDISPLAY
280
     0
  9
$INTERSECTIONCOLOR
 70
   257
  9
$DIMASSOC
280
     2
  9
$PROJECTNAME
  1

  9
$CAMERADISPLAY
290
     0
  9
$LENSLENGTH
 40
50.0
  9
$CAMERAHEIGHT
 40
0.0
  9
$STEPSPERSEC
 40
2.0
  9
$STEPSIZE
 40
6.0
  9
$3DDWFPREC
 40
2.0
  9
$PSOLWIDTH
 40
0.25
  9
$PSOLHEIGHT
 40
4.0
  9
$LOFTANG1
 40
1.570796326794897
  9
$LOFTANG2
 40
1.570796326794897
  9
$LOFTMAG1
 40
0.0
  9
$LOFTMAG2
 40
0.0
  9
$LOFTPARAM
 70
     7
  9
$LOFTNORMALS
280
     1
  9
$LATITUDE
 40
37.795
  9
$LONGITUDE
 40
-122.394
  9
$NORTHDIRECTION
 40
0.0
  9
$TIMEZONE
 70
 -8000
  9
$LIGHTGLYPHDISPLAY
280
     1
  9
$TILEMODELIGHTSYNCH
280
     1
  9
$CMATERIAL
347
44
  9
$SOLIDHIST
280
     0
  9
$SHOWHIST
280
     1
  9
$DWFFRAME
280
     2
  9
$DGNFRAME
280
     2
  9
$REALWORLDSCALE
290
     1
  9
$INTERFERECOLOR
 62
   256
  9
$CSHADOW
280
     0
  9
$SHADOWPLANELOCATION
 40
0.0
  0
ENDSEC
  0
SECTION
  2
CLASSES
  0
CLASS
  1
ACDBDICTIONARYWDFLT
  2
AcDbDictionaryWithDefault
  3
ObjectDBX Classes
 90
        0
 91
        3
280
     0
281
     0
  0
CLASS
  1
VISUALSTYLE
  2
AcDbVisualStyle
  3
ObjectDBX Classes
 90
     4095
 91
        3
280
     0
281
     0
  0
CLASS
  1
MATERIAL
  2
AcDbMaterial
  3
ObjectDBX Classes
 90
     1153
 91
        3
280
     0
281
     0
  0
CLASS
  1
SCALE
  2
AcDbScale
  3
ObjectDBX Classes
 90
     1153
 91
        3
280
     0
281
     0
  0
CLASS
  1
TABLESTYLE
  2
AcDbTableStyle
  3
ObjectDBX Classes
 90
     4095
 91
        3
280
     0
281
     0
  0
CLASS
  1
MLEADERSTYLE
  2
AcDbMLeaderStyle
  3
ACDB_MLEADERSTYLE_CLASS
 90
     4095
 91
        3
280
     0
281
     0
  0
CLASS
  1
SUN
  2
AcDbSun
  3
SCENEOE
 90
     1153
 91
        3
280
     0
281
     0
  0
CLASS
  1
DICTIONARYVAR
  2
AcDbDictionaryVar
  3
ObjectDBX Classes
 90
        0
 91
        3
280
     0
281
     0
  0
CLASS
  1
CELLSTYLEMAP
  2
AcDbCellStyleMap
  3
ObjectDBX Classes
 90
     1152
 91
        3
280
     0
281
     0
  0
ENDSEC
  0
SECTION
  2
TABLES
  0
TABLE
  2
VPORT
  5
8
330
0
100
AcDbSymbolTable
 70
     1
  0
VPORT
  5
29
330
8
100
AcDbSymbolTableRecord
100
AcDbViewportTableRecord
  2
*Active
 70
     0
 10
0.0
 20
0.0
 11
1.0
 21
1.0
 12
10.42990654205607
 22
4.5
 13
0.0
 23
0.0
 14
0.5
 24
0.5
 15
0.5
 25
0.5
 16
0.0
 26
0.0
 36
1.0
 17
0.0
 27
0.0
 37
0.0
 40
9.0
 41
1.972972972850329
 42
50.0
 43
0.0
 44
0.0
 50
0.0
 51
0.0
 71
     0
 72
   100
 73
     1
 74
     3
 75
     0
 76
     0
 77
     0
 78
     0
281
     0
 65
     1
110
0.0
120
0.0
130
0.0
111
1.0
121
0.0
131
0.0
112
0.0
122
1.0
132
0.0
 79
     0
146
0.0
348
2F
 60
     3
 61
     5
292
     1
282
     1
141
0.0
142
0.0
 63
   250
361
5D
  0
ENDTAB
  0
TABLE
  2
LTYPE
  5
5
330
0
100
AcDbSymbolTable
 70
     1
  0
LTYPE
  5
14
330
5
100
AcDbSymbolTableRecord
100
AcDbLinetypeTableRecord
  2
ByBlock
 70
     0
  3

 72
    65
 73
     0
 40
0.0
  0
LTYPE
  5
15
330
5
100
AcDbSymbolTableRecord
100
AcDbLinetypeTableRecord
  2
ByLayer
 70
     0
  3

 72
    65
 73
     0
 40
0.0
  0
LTYPE
  5
16
330
5
100
AcDbSymbolTableRecord
100
AcDbLinetypeTableRecord
  2
Continuous
 70
     0
  3
Solid line
 72
    65
 73
     0
 40
0.0
  0
ENDTAB
  0
TABLE
  2
LAYER
  5
2
330
0
100
AcDbSymbolTable
 70
     2
  0
LAYER
  5
10
330
2
100
AcDbSymbolTableRecord
100
AcDbLayerTableRecord
  2
0
 70
     0
 62
     7
  6
Continuous
370
    -3
390
F
347
46
  0
LAYER
  5
5F
330
2
100
AcDbSymbolTableRecord
100
AcDbLayerTableRecord
  2
Livello 01
 70
     0
 62
    18
420
        0
  6
Continuous
370
    -3
390
F
347
46
  0
ENDTAB
  0
TABLE
  2
STYLE
  5
3
330
0
100
AcDbSymbolTable
 70
     1
  0
STYLE
  5
11
330
3
100
AcDbSymbolTableRecord
100
AcDbTextStyleTableRecord
  2
Standard
 70
     0
 40
0.0
 41
1.0
 50
0.0
 71
     0
 42
0.2
  3
txt
  4

  0
ENDTAB
  0
TABLE
  2
VIEW
  5
6
330
0
100
AcDbSymbolTable
 70
     0
  0
ENDTAB
  0
TABLE
  2
UCS
  5
7
330
0
100
AcDbSymbolTable
 70
     0
  0
ENDTAB
  0
TABLE
  2
APPID
  5
9
330
0
100
AcDbSymbolTable
 70
     3
  0
APPID
  5
12
330
9
100
AcDbSymbolTableRecord
100
AcDbRegAppTableRecord
  2
ACAD
 70
     0
  0
APPID
  5
5E
330
9
100
AcDbSymbolTableRecord
100
AcDbRegAppTableRecord
  2
Rhino
 70
     0
  0
APPID
  5
354
330
9
100
AcDbSymbolTableRecord
100
AcDbRegAppTableRecord
  2
ACAD_MLEADERVER
 70
     0
  0
ENDTAB
  0
TABLE
  2
DIMSTYLE
  5
A
330
0
100
AcDbSymbolTable
 70
     1
100
AcDbDimStyleTable
  0
DIMSTYLE
105
27
330
A
100
AcDbSymbolTableRecord
100
AcDbDimStyleTableRecord
  2
STANDARD_ACAD
 70
     0
178
     0
340
11
  0
ENDTAB
  0
TABLE
  2
BLOCK_RECORD
  5
1
330
0
100
AcDbSymbolTable
 70
     9
  0
BLOCK_RECORD
  5
1F
330
1
100
AcDbSymbolTableRecord
100
AcDbBlockTableRecord
  2
*Model_Space
340
22
 70
     0
280
     1
281
     0
  0
BLOCK_RECORD
  5
1B
330
1
100
AcDbSymbolTableRecord
100
AcDbBlockTableRecord
  2
*Paper_Space
340
1E
 70
     0
280
     1
281
     0
  0
BLOCK_RECORD
  5
23
330
1
100
AcDbSymbolTableRecord
100
AcDbBlockTableRecord
  2
*Paper_Space0
340
26
 70
     0
280
     1
281
     0
  0
BLOCK_RECORD
  5
60
330
1
100
AcDbSymbolTableRecord
100
AcDbBlockTableRecord
  2
6300BR01-00
340
0
102
{BLKREFS
331
31E
102
}
 70
     0
280
     1
281
     0
  0
BLOCK_RECORD
  5
61
330
1
100
AcDbSymbolTableRecord
100
AcDbBlockTableRecord
  2
10CO16860YY
340
0
102
{BLKREFS
331
106
102
}
 70
     0
280
     1
281
     0
  0
BLOCK_RECORD
  5
107
330
1
100
AcDbSymbolTableRecord
100
AcDbBlockTableRecord
  2
10OR0616000
340
0
102
{BLKREFS
331
112
102
}
 70
     0
280
     1
281
     0
  0
BLOCK_RECORD
  5
113
330
1
100
AcDbSymbolTableRecord
100
AcDbBlockTableRecord
  2
10OR0126000
340
0
102
{BLKREFS
331
11E
102
}
 70
     0
280
     1
281
     0
  0
BLOCK_RECORD
  5
11F
330
1
100
AcDbSymbolTableRecord
100
AcDbBlockTableRecord
  2
10VI0756000
340
0
102
{BLKREFS
331
15B
102
}
 70
     0
280
     1
281
     0
  0
BLOCK_RECORD
  5
15C
330
1
100
AcDbSymbolTableRecord
100
AcDbBlockTableRecord
  2
10OR1226000
340
0
102
{BLKREFS
331
167
102
}
 70
     0
280
     1
281
     0
  0
BLOCK_RECORD
  5
168
330
1
100
AcDbSymbolTableRecord
100
AcDbBlockTableRecord
  2
10BR09660YY
340
0
102
{BLKREFS
331
26E
102
}
 70
     0
280
     1
281
     0
  0
BLOCK_RECORD
  5
26F
330
1
100
AcDbSymbolTableRecord
100
AcDbBlockTableRecord
  2
10RD00460YY
340
0
102
{BLKREFS
331
31B
102
}
 70
     0
280
     1
281
     0
  0
ENDTAB
  0
ENDSEC
  0
SECTION
  2
BLOCKS
  0
BLOCK
  5
20
330
1F
100
AcDbEntity
  8
0
100
AcDbBlockBegin
  2
*Model_Space
 70
     0
 10
0.0
 20
0.0
 30
0.0
  3
*Model_Space
  1

  0
ENDBLK
  5
21
330
1F
100
AcDbEntity
  8
0
100
AcDbBlockEnd
  0
BLOCK
  5
1C
330
1B
100
AcDbEntity
 67
     1
  8
0
100
AcDbBlockBegin
  2
*Paper_Space
 70
     0
 10
0.0
 20
0.0
 30
0.0
  3
*Paper_Space
  1

  0
ENDBLK
  5
1D
330
1B
100
AcDbEntity
 67
     1
  8
0
100
AcDbBlockEnd
  0
BLOCK
  5
24
330
23
100
AcDbEntity
  8
0
100
AcDbBlockBegin
  2
*Paper_Space0
 70
     0
 10
0.0
 20
0.0
 30
0.0
  3
*Paper_Space0
  1

  0
ENDBLK
  5
25
330
23
100
AcDbEntity
  8
0
100
AcDbBlockEnd
  0
BLOCK
  5
31C
330
60
100
AcDbEntity
  8
0
100
AcDbBlockBegin
  2
6300BR01-00
 70
     0
 10
0.0
 20
0.0
 30
0.0
  3
6300BR01-00
  1

  0
INSERT
  5
106
330
60
100
AcDbEntity
  8
Livello 01
100
AcDbBlockReference
  2
10CO16860YY
 10
0.0000000000000022
 20
0.000000000000005
 30
-0.0000000000000074
 50
270.0
210
-5.551115123125780E-17
220
-9.912051666963600E-18
230
-1.0
  0
INSERT
  5
112
330
60
100
AcDbEntity
  8
Livello 01
100
AcDbBlockReference
  2
10OR0616000
 10
-0.0000000000000066
 20
0.0000000000000032
 30
14.7
 50
360.0
210
-6.327771339814061E-17
220
-1.0
230
6.021674869912010E-17
  0
INSERT
  5
11E
330
60
100
AcDbEntity
  8
Livello 01
100
AcDbBlockReference
  2
10OR0126000
 10
-0.0000000000000045
 20
0.0000000000000028
 30
9.7
 50
360.0
210
-1.278684811206810E-16
220
-1.0
230
1.248075164216610E-16
  0
INSERT
  5
15B
330
60
100
AcDbEntity
  8
Livello 01
100
AcDbBlockReference
  2
10VI0756000
 10
0.0000000000000015
 20
-5.699999999999999
 30
20.0
 50
0.0000000000000016
210
7.691580883432151E-17
220
-3.189523712337250E-17
230
-1.0
  0
INSERT
  5
167
330
60
100
AcDbEntity
  8
Livello 01
100
AcDbBlockReference
  2
10OR1226000
 10
-0.0000000000000013
 20
0.0000000000000093
 30
-2.05
 50
0.0000000000000511
210
6.192765253873210E-16
220
1.0
230
-6.514979693144640E-16
  0
INSERT
  5
26E
330
60
100
AcDbEntity
  8
Livello 01
100
AcDbBlockReference
  2
10BR09660YY
 10
-0.0000000000000331
 20
-19.06375361773843
 30
7.500000000000083
 42
0.9999999999999998
 43
0.9999999999999998
 50
359.9999999999999
210
5.620663615584777E-16
220
-0.8660254037844377
230
0.5000000000000018
  0
INSERT
  5
31B
330
60
100
AcDbEntity
  8
Livello 01
100
AcDbBlockReference
  2
10RD00460YY
 10
-0.0000000000000373
 20
-19.06375361773851
 30
7.500000000000032
 42
0.9999999999999998
 43
0.9999999999999998
 50
359.9999999999999
210
8.858464334324887E-16
220
-0.8660254037844377
230
0.5000000000000018
  0
ENDBLK
  5
31D
330
60
100
AcDbEntity
  8
0
100
AcDbBlockEnd
  0
BLOCK
  5
104
330
61
100
AcDbEntity
  8
0
100
AcDbBlockBegin
  2
10CO16860YY
 70
     0
 10
0.0
 20
0.0
 30
0.0
  3
10CO16860YY
  1

  0
ARC
  5
62
330
61
100
AcDbEntity
  8
Livello 01
 62
     9
420
 12632256
100
AcDbCircle
 10
0.0
 20
0.0000000000000035
 30
13.2
 40
8.85
210
1.0
220
0.0
230
0.0
100
AcDbArc
 50
0.0000000000000369
 51
180.0
  0
LINE
  5
63
330
61
100
AcDbEntity
  8
Livello 01
 62
     9
420
 12632256
100
AcDbLine
 10
13.2
 20
-8.85
 30
0.0
 11
12.0
 21
-8.85
 31
0.0
  0
ARC
  5
64
330
61
100
AcDbEntity
  8
Livello 01
 62
     9
420
 12632256
100
AcDbCircle
 10
0.0
 20
0.0000000000000035
 30
13.2
 40
8.85
210
1.0
220
0.0
230
0.0
100
AcDbArc
 50
180.0
 51
0.0000000000000369
  0
ARC
  5
65
330
61
100
AcDbEntity
  8
Livello 01
 62
     9
420
 12632256
100
AcDbCircle
 10
-0.000000000000003
 20
0.0000000000000035
 30
-8.2
 40
8.85
210
-1.0
220
0.0
230
0.0
100
AcDbArc
 50
90.00000000000006
 51
359.9999999999999
  0
LINE
  5
66
330
61
100
AcDbEntity
  8
Livello 01
 62
     9
420
 12632256
100
AcDbLine
 10
9.4
 20
-8.85
 30
0.0
 11
8.2
 21
-8.85
 31
0.0
  0
ARC
  5
67
330
61
100
AcDbEntity
  8
Livello 01
 62
     9
420
 12632256
100
AcDbCircle
 10
-0.000000000000003
 20
0.0000000000000035
 30
-8.2
 40
8.85
210
-1.0
220
0.0
230
0.0
100
AcDbArc
 50
359.9999999999999
 51
90.00000000000006
  0
CIRCLE
  5
68
330
61
100
AcDbEntity
  8
Livello 01
 62
     9
420
 12632256
100
AcDbCircle
 10
0.0
 20
0.0
 30
-8.2
 40
7.45
210
-1.0
220
0.0
230
0.0
  0
CIRCLE
  5
69
330
61
100
AcDbEntity
  8
Livello 01
 62
     9
420
 12632256
100
AcDbCircle
 10
0.0
 20
0.0
 30
-3.19999999999999
 40
7.45
210
-1.0
220
0.0
230
0.0
  0
LINE
  5
6A
330
61
100
AcDbEntity
  8
Livello 01
 62
     9
420
 12632256
100
AcDbLine
 10
8.2
 20
0.0
 30
7.450000000000014
 11
3.19999999999999
 21
0.0
 31
7.450000000000135
  0
CIRCLE
  5
6B
330
61
100
AcDbEntity
  8
Livello 01
 62
     9
420
 12632256
100
AcDbCircle
 10
0.0
 20
0.0000000000000037
 30
-1.2
 40
13.25
210
-1.0
220
0.0
230
0.0
  0
CIRCLE
  5
6C
330
61
100
AcDbEntity
  8
Livello 01
 62
     9
420
 12632256
100
AcDbCircle
 10
0.0
 20
0.0000000000000037
 30
0.0
 40
13.25
210
-1.0
220
0.0
230
0.0
  0
LINE
  5
6D
330
61
100
AcDbEntity
  8
Livello 01
 62
     9
420
 12632256
100
AcDbLine
 10
1.200000000000001
 20
13.25
 30
0.0000000000000037
 11
0.0000000000000009
 21
13.25
 31
0.0000000000000037
  0
ARC
  5
6E
330
61
100
AcDbEntity
  8
Livello 01
 62
     9
420
 12632256
100
AcDbCircle
 10
0.0000000000000034
 20
0.0000000000000035
 30
1.2
 40
8.85
210
1.0
220
0.0
230
0.0
100
AcDbArc
 50
180.0000000000001
 51
0.0000000000000649
  0
ARC
  5
6F
330
61
100
AcDbEntity
  8
Livello 01
 62
     9
420
 12632256
100
AcDbCircle
 10
-0.0000000000000033
 20
0.0000000000000035
 30
-3.2
 40
8.85
210
-1.0
220
0.0
230
0.0
100
AcDbArc
 50
359.9999999999999
 51
270.0000000000001
  0
LINE
  5
70
330
61
100
AcDbEntity
  8
Livello 01
 62
     9
420
 12632256
100
AcDbLine
 10
3.200000000000001
 20
-8.849999999999998
 30
0.0
 11
1.199999999999999
 21
-8.849999999999998
 31
0.0
  0
ARC
  5
71
330
61
100
AcDbEntity
  8
Livello 01
 62
     9
420
 12632256
100
AcDbCircle
 10
0.0000000000000034
 20
0.0000000000000035
 30
1.2
 40
8.85
210
1.0
220
0.0
230
0.0
100
AcDbArc
 50
0.0000000000000649
 51
180.0
  0
ARC
  5
72
330
61
100
AcDbEntity
  8
Livello 01
 62
     9
420
 12632256
100
AcDbCircle
 10
-0.0000000000000033
 20
0.0000000000000035
 30
-3.2
 40
8.85
210
-1.0
220
0.0
230
0.0
100
AcDbArc
 50
270.0000000000001
 51
359.9999999999999
  0
CIRCLE
  5
73
330
61
100
AcDbEntity
  8
Livello 01
 62
     9
420
 12632256
100
AcDbCircle
 10
0.0
 20
0.0
 30
-11.7
 40
7.45
210
-1.0
220
0.0
230
0.0
  0
CIRCLE
  5
74
330
61
100
AcDbEntity
  8
Livello 01
 62
     9
420
 12632256
100
AcDbCircle
 10
0.0
 20
0.0
 30
-9.7
 40
7.45
210
-1.0
220
0.0
230
0.0
  0
LINE
  5
75
330
61
100
AcDbEntity
  8
Livello 01
 62
     9
420
 12632256
100
AcDbLine
 10
11.7
 20
0.0
 30
7.450000000000006
 11
9.7
 21
0.0
 31
7.450000000000056
  0
CIRCLE
  5
76
330
61
100
AcDbEntity
  8
Livello 01
 62
     9
420
 12632256
100
AcDbCircle
 10
0.0
 20
0.0000000000000035
 30
-13.2
 40
7.85
210
-1.0
220
0.0
230
0.0
  0
LINE
  5
77
330
61
100
AcDbEntity
  8
Livello 01
 62
     9
420
 12632256
100
AcDbLine
 10
13.2
 20
7.85
 30
0.0000000000000035
 11
14.4
 21
7.85
 31
0.0000000000000035
  0
CIRCLE
  5
78
330
61
100
AcDbEntity
  8
Livello 01
 62
     9
420
 12632256
100
AcDbCircle
 10
0.0
 20
0.0
 30
16.7
 40
6.4
210
1.0
220
0.0
230
0.0
  0
CIRCLE
  5
79
330
61
100
AcDbEntity
  8
Livello 01
 62
     9
420
 12632256
100
AcDbCircle
 10
0.0
 20
0.0
 30
14.7
 40
6.4
210
1.0
220
0.0
230
0.0
  0
LINE
  5
7A
330
61
100
AcDbEntity
  8
Livello 01
 62
     9
420
 12632256
100
AcDbLine
 10
16.7
 20
0.0
 30
6.400000000000007
 11
14.7
 21
0.0
 31
6.400000000000064
  0
LINE
  5
7B
330
61
100
AcDbEntity
  8
Livello 01
 62
     9
420
 12632256
100
AcDbLine
 10
17.0
 20
7.85
 30
0.0000000000000035
 11
18.2
 21
7.85
 31
0.0000000000000035
  0
CIRCLE
  5
7C
330
61
100
AcDbEntity
  8
Livello 01
 62
     9
420
 12632256
100
AcDbCircle
 10
0.0
 20
0.0
 30
-19.2
 40
6.85
210
-1.0
220
0.0
230
0.0
  0
ARC
  5
7D
330
61
100
AcDbEntity
  8
Livello 01
 62
     9
420
 12632256
100
AcDbCircle
 10
0.0
 20
0.0
 30
18.2
 40
7.85
210
1.0
220
0.0
230
0.0
100
AcDbArc
 50
180.0
 51
0.000000000000007
  0
LINE
  5
7E
330
61
100
AcDbEntity
  8
Livello 01
 62
     9
420
 12632256
100
AcDbLine
 10
19.2
 20
-6.849999999999999
 30
0.0
 11
18.2
 21
-7.849999999999999
 31
0.0
  0
ARC
  5
7F
330
61
100
AcDbEntity
  8
Livello 01
 62
     9
420
 12632256
100
AcDbCircle
 10
0.0
 20
0.0
 30
18.2
 40
7.85
210
1.0
220
0.0
230
0.0
100
AcDbArc
 50
0.000000000000007
 51
180.0
  0
ARC
  5
80
330
61
100
AcDbEntity
  8
Livello 01
 62
     9
420
 12632256
100
AcDbCircle
 10
0.0000000000000029
 20
0.0000000000000035
 30
9.4
 40
8.85
210
1.0
220
0.0
230
0.0
100
AcDbArc
 50
270.0
 51
180.0
  0
ARC
  5
81
330
61
100
AcDbEntity
  8
Livello 01
 62
     9
420
 12632256
100
AcDbCircle
 10
9.4
 20
-8.549999999999997
 30
-0.0000000000000029
 40
0.3
210
0.0
220
-1.0
230
0.0
100
AcDbArc
 50
270.0
 51
0.0
  0
CIRCLE
  5
82
330
61
100
AcDbEntity
  8
Livello 01
 62
     9
420
 12632256
100
AcDbCircle
 10
0.0000000000000029
 20
0.0000000000000035
 30
9.7
 40
8.55
210
1.0
220
0.0
230
0.0
  0
ARC
  5
83
330
61
100
AcDbEntity
  8
Livello 01
 62
     9
420
 12632256
100
AcDbCircle
 10
0.0000000000000029
 20
0.0000000000000035
 30
9.4
 40
8.85
210
1.0
220
0.0
230
0.0
100
AcDbArc
 50
180.0
 51
270.0
  0
ARC
  5
84
330
61
100
AcDbEntity
  8
Livello 01
 62
     9
420
 12632256
100
AcDbCircle
 10
0.0
 20
0.0
 30
-17.0
 40
7.85
210
-1.0
220
0.0
230
0.0
100
AcDbArc
 50
90.0
 51
180.0
  0
ARC
  5
85
330
61
100
AcDbEntity
  8
Livello 01
 62
     9
420
 12632256
100
AcDbCircle
 10
17.0
 20
7.55
 30
0.0
 40
0.3
210
0.0
220
-1.0
230
0.0
100
AcDbArc
 50
90.0
 51
180.0
  0
CIRCLE
  5
86
330
61
100
AcDbEntity
  8
Livello 01
 62
     9
420
 12632256
100
AcDbCircle
 10
0.0
 20
0.0
 30
-16.7
 40
7.55
210
-1.0
220
0.0
230
0.0
  0
ARC
  5
87
330
61
100
AcDbEntity
  8
Livello 01
 62
     9
420
 12632256
100
AcDbCircle
 10
0.0
 20
0.0
 30
-17.0
 40
7.85
210
-1.0
220
0.0
230
0.0
100
AcDbArc
 50
180.0
 51
89.99999999999999
  0
ARC
  5
88
330
61
100
AcDbEntity
  8
Livello 01
 62
     9
420
 12632256
100
AcDbCircle
 10
0.0
 20
0.0000000000000035
 30
14.4
 40
7.85
210
1.0
220
0.0
230
0.0
100
AcDbArc
 50
270.0
 51
359.9999999999999
  0
ARC
  5
89
330
61
100
AcDbEntity
  8
Livello 01
 62
     9
420
 12632256
100
AcDbCircle
 10
14.4
 20
-7.549999999999996
 30
0.0
 40
0.3
210
0.0
220
-1.0
230
0.0
100
AcDbArc
 50
270.0
 51
0.0
  0
CIRCLE
  5
8A
330
61
100
AcDbEntity
  8
Livello 01
 62
     9
420
 12632256
100
AcDbCircle
 10
0.0
 20
0.0000000000000035
 30
14.7
 40
7.55
210
1.0
220
0.0
230
0.0
  0
ARC
  5
8B
330
61
100
AcDbEntity
  8
Livello 01
 62
     9
420
 12632256
100
AcDbCircle
 10
0.0
 20
0.0000000000000035
 30
14.4
 40
7.85
210
1.0
220
0.0
230
0.0
100
AcDbArc
 50
359.9999999999999
 51
270.0
  0
ARC
  5
8C
330
61
100
AcDbEntity
  8
Livello 01
 62
     9
420
 12632256
100
AcDbCircle
 10
-0.0000000000000028
 20
0.0000000000000035
 30
-12.0
 40
8.85
210
-1.0
220
0.0
230
0.0
100
AcDbArc
 50
90.0
 51
359.9999999999999
  0
ARC
  5
8D
330
61
100
AcDbEntity
  8
Livello 01
 62
     9
420
 12632256
100
AcDbCircle
 10
12.0
 20
8.550000000000004
 30
-0.0000000000000028
 40
0.3
210
0.0
220
-1.0
230
0.0
100
AcDbArc
 50
90.0
 51
180.0
  0
CIRCLE
  5
8E
330
61
100
AcDbEntity
  8
Livello 01
 62
     9
420
 12632256
100
AcDbCircle
 10
-0.0000000000000028
 20
0.0000000000000035
 30
-11.7
 40
8.55
210
-1.0
220
0.0
230
0.0
  0
ARC
  5
8F
330
61
100
AcDbEntity
  8
Livello 01
 62
     9
420
 12632256
100
AcDbCircle
 10
-0.0000000000000028
 20
0.0000000000000035
 30
-12.0
 40
8.85
210
-1.0
220
0.0
230
0.0
100
AcDbArc
 50
359.9999999999999
 51
89.99999999999999
  0
CIRCLE
  5
90
330
61
100
AcDbEntity
  8
Livello 01
 62
     9
420
 12632256
100
AcDbCircle
 10
-0.0000000000000034
 20
0.0000000000000037
 30
-7.2
 40
5.0
210
-1.0
220
0.0
230
0.0
  0
CIRCLE
  5
91
330
61
100
AcDbEntity
  8
Livello 01
 62
     9
420
 12632256
100
AcDbCircle
 10
0.0
 20
0.0
 30
19.2
 40
5.0
210
1.0
220
0.0
230
0.0
  0
LINE
  5
92
330
61
100
AcDbEntity
  8
Livello 01
 62
     9
420
 12632256
100
AcDbLine
 10
7.200000000000001
 20
5.000000000000003
 30
0.0000000000000037
 11
19.2
 21
5.000000000000001
 31
0.0000000000000037
  0
CIRCLE
  5
93
330
61
100
AcDbEntity
  8
Livello 01
 62
     9
420
 12632256
100
AcDbCircle
 10
0.0000000000000038
 20
0.0000000000000037
 30
0.0
 40
2.75
210
1.0
220
0.0
230
0.0
  0
LINE
  5
94
330
61
100
AcDbEntity
  8
Livello 01
 62
     9
420
 12632256
100
AcDbLine
 10
5.199999999999979
 20
-2.750000000000029
 30
0.0000000000000037
 11
0.0000000000000002
 21
-2.750000000000335
 31
0.0000000000000037
  0
ARC
  5
95
330
61
100
AcDbEntity
  8
Livello 01
 62
     9
420
 12632256
100
AcDbCircle
 10
-0.0000000000000033
 20
0.0000000000000037
 30
-7.2
 40
4.75000000000004
210
-1.0
220
0.0
230
0.0
100
AcDbArc
 50
180.0
 51
89.99999999999999
  0
ARC
  5
96
330
61
100
AcDbEntity
  8
Livello 01
 62
     9
420
 12632256
100
AcDbCircle
 10
0.0000000000000035
 20
0.0000000000000037
 30
5.19999999999998
 40
2.75
210
1.0
220
0.0
230
0.0
100
AcDbArc
 50
0.000000000000014
 51
180.0
  0
LINE
  5
97
330
61
100
AcDbEntity
  8
Livello 01
 62
     9
420
 12632256
100
AcDbLine
 10
5.19999999999998
 20
2.750000000000004
 30
0.0000000000000037
 11
7.199999999999998
 21
4.750000000000047
 31
0.0000000000000037
  0
ARC
  5
98
330
61
100
AcDbEntity
  8
Livello 01
 62
     9
420
 12632256
100
AcDbCircle
 10
-0.0000000000000033
 20
0.0000000000000037
 30
-7.2
 40
4.75000000000004
210
-1.0
220
0.0
230
0.0
100
AcDbArc
 50
89.99999999999999
 51
180.0
  0
ARC
  5
99
330
61
100
AcDbEntity
  8
Livello 01
 62
     9
420
 12632256
100
AcDbCircle
 10
0.0000000000000035
 20
0.0000000000000037
 30
5.19999999999998
 40
2.75
210
1.0
220
0.0
230
0.0
100
AcDbArc
 50
180.0
 51
0.0
  0
LINE
  5
9A
330
61
100
AcDbEntity
  8
Livello 01
 62
     9
420
 12632256
100
AcDbLine
 10
0.0000000000000008
 20
13.25
 30
0.0000000000000037
 11
0.0000000000000002
 21
2.750000000000004
 31
0.0000000000000037
  0
LINE
  5
9B
330
61
100
AcDbEntity
  8
Livello 01
 62
     9
420
 12632256
100
AcDbLine
 10
-0.0000000000000002
 20
-2.749999999999996
 30
0.0000000000000037
 11
-0.0000000000000008
 21
-13.25
 31
0.0000000000000037
  0
LINE
  5
9C
330
61
100
AcDbEntity
  8
Livello 01
 62
     9
420
 12632256
100
AcDbLine
 10
0.0
 20
-0.0000000000000018
 30
-13.25
 11
0.0
 21
-0.0000000000000018
 31
-2.749999999999996
  0
LINE
  5
9D
330
61
100
AcDbEntity
  8
Livello 01
 62
     9
420
 12632256
100
AcDbLine
 10
0.0
 20
-0.0000000000000018
 30
2.750000000000004
 11
0.0
 21
-0.0000000000000018
 31
13.25000000000001
  0
LINE
  5
9E
330
61
100
AcDbEntity
  8
Livello 01
 62
     9
420
 12632256
100
AcDbLine
 10
7.2
 20
0.0000000000000034
 30
-4.999999999999996
 11
7.2
 21
0.0000000000000034
 31
-4.750000000000036
  0
LINE
  5
9F
330
61
100
AcDbEntity
  8
Livello 01
 62
     9
420
 12632256
100
AcDbLine
 10
7.2
 20
0.0000000000000034
 30
4.750000000000044
 11
7.2
 21
0.0000000000000034
 31
5.000000000000002
  0
LINE
  5
A0
330
61
100
AcDbEntity
  8
Livello 01
 62
     9
420
 12632256
100
AcDbLine
 10
7.2
 20
-4.999999999999996
 30
0.0000000000000037
 11
7.2
 21
-4.750000000000036
 31
0.0000000000000037
  0
LINE
  5
A1
330
61
100
AcDbEntity
  8
Livello 01
 62
     9
420
 12632256
100
AcDbLine
 10
7.2
 20
4.750000000000044
 30
0.0000000000000037
 11
7.2
 21
5.000000000000002
 31
0.0000000000000037
  0
LINE
  5
A2
330
61
100
AcDbEntity
  8
Livello 01
 62
     9
420
 12632256
100
AcDbLine
 10
19.2
 20
6.85
 30
-0.0000000000000009
 11
19.2
 21
5.0
 31
-0.0000000000000009
  0
LINE
  5
A3
330
61
100
AcDbEntity
  8
Livello 01
 62
     9
420
 12632256
100
AcDbLine
 10
19.2
 20
-5.0
 30
-0.0000000000000009
 11
19.2
 21
-6.849999999999998
 31
-0.0000000000000009
  0
LINE
  5
A4
330
61
100
AcDbEntity
  8
Livello 01
 62
     9
420
 12632256
100
AcDbLine
 10
19.2
 20
0.0000000000000009
 30
-6.849999999999999
 11
19.2
 21
0.0000000000000009
 31
-4.999999999999997
  0
LINE
  5
A5
330
61
100
AcDbEntity
  8
Livello 01
 62
     9
420
 12632256
100
AcDbLine
 10
19.2
 20
0.0000000000000009
 30
5.000000000000003
 11
19.2
 21
0.0000000000000009
 31
6.85
  0
CIRCLE
  5
A6
330
61
100
AcDbEntity
  8
Livello 01
 62
     9
420
 12632256
100
AcDbCircle
 10
-0.0000000000000004
 20
0.0
 30
-12.6
 40
8.85
210
-1.0
220
0.0
230
0.0
  0
LINE
  5
A7
330
61
100
AcDbEntity
  8
Livello 01
 62
     9
420
 12632256
100
AcDbLine
 10
13.2
 20
0.0000000000000004
 30
8.850000000000001
 11
12.0
 21
0.0000000000000004
 31
8.850000000000001
  0
LINE
  5
A8
330
61
100
AcDbEntity
  8
Livello 01
 62
     9
420
 12632256
100
AcDbLine
 10
13.2
 20
8.85
 30
0.0
 11
12.0
 21
8.85
 31
0.0
  0
LINE
  5
A9
330
61
100
AcDbEntity
  8
Livello 01
 62
     9
420
 12632256
100
AcDbLine
 10
13.2
 20
0.0000000000000004
 30
-8.850000000000001
 11
12.0
 21
0.0000000000000004
 31
-8.850000000000001
  0
CIRCLE
  5
AA
330
61
100
AcDbEntity
  8
Livello 01
 62
     9
420
 12632256
100
AcDbCircle
 10
-0.0000000000000006
 20
0.0
 30
-8.8
 40
8.85
210
-1.0
220
0.0
230
0.0
  0
LINE
  5
AB
330
61
100
AcDbEntity
  8
Livello 01
 62
     9
420
 12632256
100
AcDbLine
 10
9.4
 20
0.0000000000000006
 30
8.850000000000001
 11
8.2
 21
0.0000000000000007
 31
8.850000000000001
  0
LINE
  5
AC
330
61
100
AcDbEntity
  8
Livello 01
 62
     9
420
 12632256
100
AcDbLine
 10
9.400000000000002
 20
8.85
 30
0.0
 11
8.200000000000001
 21
8.85
 31
0.0
  0
LINE
  5
AD
330
61
100
AcDbEntity
  8
Livello 01
 62
     9
420
 12632256
100
AcDbLine
 10
9.4
 20
0.0000000000000006
 30
-8.850000000000001
 11
8.2
 21
0.0000000000000007
 31
-8.850000000000001
  0
LINE
  5
AE
330
61
100
AcDbEntity
  8
Livello 01
 62
     9
420
 12632256
100
AcDbLine
 10
3.2
 20
0.0000000000000036
 30
8.850000000000005
 11
3.2
 21
0.0000000000000036
 31
7.450000000000001
  0
LINE
  5
AF
330
61
100
AcDbEntity
  8
Livello 01
 62
     9
420
 12632256
100
AcDbLine
 10
3.2
 20
0.0000000000000036
 30
-7.449999999999999
 11
3.2
 21
0.0000000000000036
 31
-8.849999999999993
  0
LINE
  5
B0
330
61
100
AcDbEntity
  8
Livello 01
 62
     9
420
 12632256
100
AcDbLine
 10
3.2
 20
-8.849999999999996
 30
0.0000000000000053
 11
3.2
 21
-7.449999999999999
 31
0.0000000000000053
  0
LINE
  5
B1
330
61
100
AcDbEntity
  8
Livello 01
 62
     9
420
 12632256
100
AcDbLine
 10
3.2
 20
7.450000000000001
 30
0.0000000000000053
 11
3.2
 21
8.850000000000001
 31
0.0000000000000053
  0
CIRCLE
  5
B2
330
61
100
AcDbEntity
  8
Livello 01
 62
     9
420
 12632256
100
AcDbCircle
 10
0.0
 20
0.0000000000000744
 30
-5.699999999999999
 40
7.45
210
-1.0
220
0.0
230
0.0
  0
LINE
  5
B3
330
61
100
AcDbEntity
  8
Livello 01
 62
     9
420
 12632256
100
AcDbLine
 10
8.19999999999982
 20
7.450000000000001
 30
0.0000000000000136
 11
3.199999999999809
 21
7.45
 31
0.0000000000001352
  0
LINE
  5
B4
330
61
100
AcDbEntity
  8
Livello 01
 62
     9
420
 12632256
100
AcDbLine
 10
8.199999999999639
 20
0.0
 30
-7.449999999999987
 11
3.199999999999628
 21
0.0
 31
-7.449999999999865
  0
LINE
  5
B5
330
61
100
AcDbEntity
  8
Livello 01
 62
     9
420
 12632256
100
AcDbLine
 10
8.19999999999982
 20
-7.450000000000001
 30
0.0000000000000136
 11
3.199999999999809
 21
-7.45
 31
0.0000000000001352
  0
LINE
  5
B6
330
61
100
AcDbEntity
  8
Livello 01
 62
     9
420
 12632256
100
AcDbLine
 10
8.2
 20
0.0000000000000027
 30
-8.849999999999998
 11
8.2
 21
0.0000000000000027
 31
-7.449999999999999
  0
LINE
  5
B7
330
61
100
AcDbEntity
  8
Livello 01
 62
     9
420
 12632256
100
AcDbLine
 10
8.2
 20
0.0000000000000027
 30
7.450000000000001
 11
8.2
 21
0.0000000000000027
 31
8.850000000000003
  0
LINE
  5
B8
330
61
100
AcDbEntity
  8
Livello 01
 62
     9
420
 12632256
100
AcDbLine
 10
8.2
 20
-8.849999999999998
 30
0.0000000000000027
 11
8.2
 21
-7.449999999999999
 31
0.0000000000000027
  0
LINE
  5
B9
330
61
100
AcDbEntity
  8
Livello 01
 62
     9
420
 12632256
100
AcDbLine
 10
8.2
 20
7.45
 30
0.0000000000000027
 11
8.2
 21
8.85
 31
0.0000000000000027
  0
CIRCLE
  5
BA
330
61
100
AcDbEntity
  8
Livello 01
 62
     9
420
 12632256
100
AcDbCircle
 10
0.0
 20
0.0000000000000037
 30
-0.6000000000000002
 40
13.25
210
-1.0
220
0.0
230
0.0
  0
LINE
  5
BB
330
61
100
AcDbEntity
  8
Livello 01
 62
     9
420
 12632256
100
AcDbLine
 10
1.200000000000001
 20
0.0
 30
-13.25
 11
0.0000000000000009
 21
0.0
 31
-13.25
  0
LINE
  5
BC
330
61
100
AcDbEntity
  8
Livello 01
 62
     9
420
 12632256
100
AcDbLine
 10
1.200000000000001
 20
-13.25
 30
0.0000000000000037
 11
0.0000000000000009
 21
-13.25
 31
0.0000000000000037
  0
LINE
  5
BD
330
61
100
AcDbEntity
  8
Livello 01
 62
     9
420
 12632256
100
AcDbLine
 10
1.200000000000001
 20
0.0
 30
13.25
 11
0.0000000000000009
 21
0.0
 31
13.25
  0
LINE
  5
BE
330
61
100
AcDbEntity
  8
Livello 01
 62
     9
420
 12632256
100
AcDbLine
 10
1.200000000000001
 20
13.25
 30
0.0000000000000037
 11
1.200000000000001
 21
8.850000000000003
 31
0.0000000000000037
  0
LINE
  5
BF
330
61
100
AcDbEntity
  8
Livello 01
 62
     9
420
 12632256
100
AcDbLine
 10
1.2
 20
-8.849999999999994
 30
0.0000000000000037
 11
1.199999999999999
 21
-13.25
 31
0.0000000000000037
  0
LINE
  5
C0
330
61
100
AcDbEntity
  8
Livello 01
 62
     9
420
 12632256
100
AcDbLine
 10
1.2
 20
-0.0000000000000018
 30
-13.25
 11
1.2
 21
-0.0000000000000018
 31
-8.849999999999998
  0
LINE
  5
C1
330
61
100
AcDbEntity
  8
Livello 01
 62
     9
420
 12632256
100
AcDbLine
 10
1.2
 20
-0.0000000000000018
 30
8.850000000000009
 11
1.2
 21
-0.0000000000000018
 31
13.25
  0
CIRCLE
  5
C2
330
61
100
AcDbEntity
  8
Livello 01
 62
     9
420
 12632256
100
AcDbCircle
 10
-0.000000000000001
 20
0.0
 30
-2.199999999999999
 40
8.85
210
-1.0
220
0.0
230
0.0
  0
LINE
  5
C3
330
61
100
AcDbEntity
  8
Livello 01
 62
     9
420
 12632256
100
AcDbLine
 10
3.200000000000001
 20
0.000000000000001
 30
8.85
 11
1.2
 21
0.0000000000000011
 31
8.85
  0
LINE
  5
C4
330
61
100
AcDbEntity
  8
Livello 01
 62
     9
420
 12632256
100
AcDbLine
 10
3.200000000000002
 20
8.85
 30
0.0
 11
1.2
 21
8.85
 31
0.0
  0
LINE
  5
C5
330
61
100
AcDbEntity
  8
Livello 01
 62
     9
420
 12632256
100
AcDbLine
 10
3.200000000000001
 20
0.000000000000001
 30
-8.85
 11
1.2
 21
0.0000000000000011
 31
-8.85
  0
LINE
  5
C6
330
61
100
AcDbEntity
  8
Livello 01
 62
     9
420
 12632256
100
AcDbLine
 10
9.7
 20
0.0000000000000018
 30
8.550000000000004
 11
9.7
 21
0.0000000000000018
 31
7.45
  0
LINE
  5
C7
330
61
100
AcDbEntity
  8
Livello 01
 62
     9
420
 12632256
100
AcDbLine
 10
9.7
 20
0.0000000000000018
 30
-7.45
 11
9.7
 21
0.0000000000000018
 31
-8.549999999999997
  0
LINE
  5
C8
330
61
100
AcDbEntity
  8
Livello 01
 62
     9
420
 12632256
100
AcDbLine
 10
9.7
 20
-8.549999999999997
 30
0.0000000000000053
 11
9.7
 21
-7.45
 31
0.0000000000000053
  0
LINE
  5
C9
330
61
100
AcDbEntity
  8
Livello 01
 62
     9
420
 12632256
100
AcDbLine
 10
9.7
 20
7.45
 30
0.0000000000000053
 11
9.7
 21
8.550000000000004
 31
0.0000000000000053
  0
CIRCLE
  5
CA
330
61
100
AcDbEntity
  8
Livello 01
 62
     9
420
 12632256
100
AcDbCircle
 10
0.0
 20
0.0000000000000306
 30
-10.7
 40
7.45
210
-1.0
220
0.0
230
0.0
  0
LINE
  5
CB
330
61
100
AcDbEntity
  8
Livello 01
 62
     9
420
 12632256
100
AcDbLine
 10
11.69999999999982
 20
7.45
 30
0.0000000000000063
 11
9.69999999999982
 21
7.45
 31
0.000000000000055
  0
LINE
  5
CC
330
61
100
AcDbEntity
  8
Livello 01
 62
     9
420
 12632256
100
AcDbLine
 10
11.69999999999964
 20
0.0
 30
-7.449999999999994
 11
9.699999999999637
 21
0.0
 31
-7.449999999999945
  0
LINE
  5
CD
330
61
100
AcDbEntity
  8
Livello 01
 62
     9
420
 12632256
100
AcDbLine
 10
11.69999999999982
 20
-7.45
 30
0.0000000000000063
 11
9.69999999999982
 21
-7.45
 31
0.000000000000055
  0
LINE
  5
CE
330
61
100
AcDbEntity
  8
Livello 01
 62
     9
420
 12632256
100
AcDbLine
 10
11.7
 20
0.0000000000000018
 30
-8.549999999999997
 11
11.7
 21
0.0000000000000018
 31
-7.45
  0
LINE
  5
CF
330
61
100
AcDbEntity
  8
Livello 01
 62
     9
420
 12632256
100
AcDbLine
 10
11.7
 20
0.0000000000000018
 30
7.45
 11
11.7
 21
0.0000000000000018
 31
8.550000000000004
  0
LINE
  5
D0
330
61
100
AcDbEntity
  8
Livello 01
 62
     9
420
 12632256
100
AcDbLine
 10
11.7
 20
-8.549999999999997
 30
0.0000000000000009
 11
11.7
 21
-7.45
 31
0.0000000000000009
  0
LINE
  5
D1
330
61
100
AcDbEntity
  8
Livello 01
 62
     9
420
 12632256
100
AcDbLine
 10
11.7
 20
7.45
 30
0.0000000000000009
 11
11.7
 21
8.55
 31
0.0000000000000009
  0
LINE
  5
D2
330
61
100
AcDbEntity
  8
Livello 01
 62
     9
420
 12632256
100
AcDbLine
 10
13.2
 20
-8.850000000000007
 30
0.0000000000000035
 11
13.2
 21
-7.849999999999998
 31
0.0000000000000035
  0
LINE
  5
D3
330
61
100
AcDbEntity
  8
Livello 01
 62
     9
420
 12632256
100
AcDbLine
 10
13.2
 20
7.849999999999998
 30
0.0000000000000035
 11
13.2
 21
8.849999999999998
 31
0.0000000000000035
  0
LINE
  5
D4
330
61
100
AcDbEntity
  8
Livello 01
 62
     9
420
 12632256
100
AcDbLine
 10
13.2
 20
-0.0000000000000018
 30
-8.849999999999996
 11
13.2
 21
-0.0000000000000018
 31
-7.849999999999996
  0
LINE
  5
D5
330
61
100
AcDbEntity
  8
Livello 01
 62
     9
420
 12632256
100
AcDbLine
 10
13.2
 20
-0.0000000000000018
 30
7.850000000000001
 11
13.2
 21
-0.0000000000000018
 31
8.849999999999998
  0
CIRCLE
  5
D6
330
61
100
AcDbEntity
  8
Livello 01
 62
     9
420
 12632256
100
AcDbCircle
 10
0.0
 20
0.0000000000000035
 30
13.8
 40
7.85
210
1.0
220
0.0
230
0.0
  0
LINE
  5
D7
330
61
100
AcDbEntity
  8
Livello 01
 62
     9
420
 12632256
100
AcDbLine
 10
13.2
 20
0.0
 30
7.850000000000003
 11
14.4
 21
-0.0000000000000001
 31
7.850000000000003
  0
LINE
  5
D8
330
61
100
AcDbEntity
  8
Livello 01
 62
     9
420
 12632256
100
AcDbLine
 10
13.2
 20
-7.85
 30
0.0000000000000035
 11
14.4
 21
-7.85
 31
0.0000000000000035
  0
LINE
  5
D9
330
61
100
AcDbEntity
  8
Livello 01
 62
     9
420
 12632256
100
AcDbLine
 10
13.2
 20
0.0
 30
-7.849999999999996
 11
14.4
 21
-0.0000000000000001
 31
-7.849999999999996
  0
LINE
  5
DA
330
61
100
AcDbEntity
  8
Livello 01
 62
     9
420
 12632256
100
AcDbLine
 10
16.7
 20
-0.0000000000000009
 30
-7.549999999999999
 11
16.7
 21
-0.0000000000000009
 31
-6.400000000000004
  0
LINE
  5
DB
330
61
100
AcDbEntity
  8
Livello 01
 62
     9
420
 12632256
100
AcDbLine
 10
16.7
 20
-0.0000000000000009
 30
6.399999999999999
 11
16.7
 21
-0.0000000000000009
 31
7.55
  0
LINE
  5
DC
330
61
100
AcDbEntity
  8
Livello 01
 62
     9
420
 12632256
100
AcDbLine
 10
16.7
 20
-7.55
 30
0.0
 11
16.7
 21
-6.4
 31
0.0
  0
LINE
  5
DD
330
61
100
AcDbEntity
  8
Livello 01
 62
     9
420
 12632256
100
AcDbLine
 10
16.7
 20
6.4
 30
0.0
 11
16.7
 21
7.550000000000001
 31
0.0
  0
CIRCLE
  5
DE
330
61
100
AcDbEntity
  8
Livello 01
 62
     9
420
 12632256
100
AcDbCircle
 10
0.0
 20
0.0000000000000357
 30
-15.7
 40
6.4
210
-1.0
220
0.0
230
0.0
  0
LINE
  5
DF
330
61
100
AcDbEntity
  8
Livello 01
 62
     9
420
 12632256
100
AcDbLine
 10
16.69999999999982
 20
6.399999999999999
 30
0.0000000000000074
 11
14.69999999999982
 21
6.399999999999999
 31
0.000000000000064
  0
LINE
  5
E0
330
61
100
AcDbEntity
  8
Livello 01
 62
     9
420
 12632256
100
AcDbLine
 10
16.69999999999964
 20
0.0
 30
-6.399999999999992
 11
14.69999999999964
 21
0.0
 31
-6.399999999999936
  0
LINE
  5
E1
330
61
100
AcDbEntity
  8
Livello 01
 62
     9
420
 12632256
100
AcDbLine
 10
16.69999999999982
 20
-6.399999999999999
 30
0.0000000000000074
 11
14.69999999999982
 21
-6.399999999999999
 31
0.000000000000064
  0
LINE
  5
E2
330
61
100
AcDbEntity
  8
Livello 01
 62
     9
420
 12632256
100
AcDbLine
 10
14.7
 20
-0.0000000000000009
 30
7.550000000000004
 11
14.7
 21
-0.0000000000000009
 31
6.4
  0
LINE
  5
E3
330
61
100
AcDbEntity
  8
Livello 01
 62
     9
420
 12632256
100
AcDbLine
 10
14.7
 20
-0.0000000000000009
 30
-6.399999999999999
 11
14.7
 21
-0.0000000000000009
 31
-7.549999999999996
  0
LINE
  5
E4
330
61
100
AcDbEntity
  8
Livello 01
 62
     9
420
 12632256
100
AcDbLine
 10
14.7
 20
-7.55
 30
0.0000000000000036
 11
14.7
 21
-6.400000000000002
 31
0.0000000000000036
  0
LINE
  5
E5
330
61
100
AcDbEntity
  8
Livello 01
 62
     9
420
 12632256
100
AcDbLine
 10
14.7
 20
6.400000000000002
 30
0.0000000000000036
 11
14.7
 21
7.550000000000001
 31
0.0000000000000036
  0
CIRCLE
  5
E6
330
61
100
AcDbEntity
  8
Livello 01
 62
     9
420
 12632256
100
AcDbCircle
 10
-0.0000000000000003
 20
0.0000000000000035
 30
17.6
 40
7.85
210
1.0
220
0.0
230
0.0
  0
LINE
  5
E7
330
61
100
AcDbEntity
  8
Livello 01
 62
     9
420
 12632256
100
AcDbLine
 10
17.0
 20
-0.0000000000000002
 30
7.850000000000003
 11
18.2
 21
-0.0000000000000003
 31
7.850000000000003
  0
LINE
  5
E8
330
61
100
AcDbEntity
  8
Livello 01
 62
     9
420
 12632256
100
AcDbLine
 10
17.0
 20
-7.85
 30
0.0000000000000035
 11
18.2
 21
-7.850000000000001
 31
0.0000000000000035
  0
LINE
  5
E9
330
61
100
AcDbEntity
  8
Livello 01
 62
     9
420
 12632256
100
AcDbLine
 10
17.0
 20
-0.0000000000000002
 30
-7.849999999999996
 11
18.2
 21
-0.0000000000000003
 31
-7.849999999999996
  0
LINE
  5
EA
330
61
100
AcDbEntity
  8
Livello 01
 62
     9
420
 12632256
100
AcDbLine
 10
19.2
 20
-0.0000000000000001
 30
6.849999999999999
 11
18.2
 21
0.0
 31
7.85
  0
LINE
  5
EB
330
61
100
AcDbEntity
  8
Livello 01
 62
     9
420
 12632256
100
AcDbLine
 10
19.2
 20
6.849999999999999
 30
0.0
 11
18.2
 21
7.85
 31
0.0
  0
LINE
  5
EC
330
61
100
AcDbEntity
  8
Livello 01
 62
     9
420
 12632256
100
AcDbLine
 10
19.2
 20
-0.0000000000000001
 30
-6.849999999999999
 11
18.2
 21
0.0
 31
-7.85
  0
ARC
  5
ED
330
61
100
AcDbEntity
  8
Livello 01
 62
     9
420
 12632256
100
AcDbCircle
 10
-9.4
 20
8.550000000000004
 30
-0.0000000000000035
 40
0.3
210
0.0
220
0.0
230
-1.0
100
AcDbArc
 50
90.0
 51
180.0
  0
ARC
  5
EE
330
61
100
AcDbEntity
  8
Livello 01
 62
     9
420
 12632256
100
AcDbCircle
 10
-9.4
 20
8.550000000000004
 30
0.0000000000000029
 40
0.3
210
0.0
220
1.0
230
0.0
100
AcDbArc
 50
90.0
 51
180.0
  0
ARC
  5
EF
330
61
100
AcDbEntity
  8
Livello 01
 62
     9
420
 12632256
100
AcDbCircle
 10
9.4
 20
-8.549999999999997
 30
0.0000000000000035
 40
0.3
100
AcDbArc
 50
270.0
 51
0.0
  0
ARC
  5
F0
330
61
100
AcDbEntity
  8
Livello 01
 62
     9
420
 12632256
100
AcDbCircle
 10
17.0
 20
7.55
 30
0.0
 40
0.3
100
AcDbArc
 50
90.0
 51
180.0
  0
ARC
  5
F1
330
61
100
AcDbEntity
  8
Livello 01
 62
     9
420
 12632256
100
AcDbCircle
 10
-17.0
 20
-7.55
 30
0.0
 40
0.3
210
0.0
220
1.0
230
0.0
100
AcDbArc
 50
270.0
 51
0.0
  0
ARC
  5
F2
330
61
100
AcDbEntity
  8
Livello 01
 62
     9
420
 12632256
100
AcDbCircle
 10
-17.0
 20
-7.55
 30
0.0
 40
0.3
210
0.0
220
0.0
230
-1.0
100
AcDbArc
 50
270.0
 51
0.0
  0
ARC
  5
F3
330
61
100
AcDbEntity
  8
Livello 01
 62
     9
420
 12632256
100
AcDbCircle
 10
-14.4
 20
7.55
 30
-0.0000000000000035
 40
0.3
210
0.0
220
0.0
230
-1.0
100
AcDbArc
 50
90.0
 51
180.0
  0
ARC
  5
F4
330
61
100
AcDbEntity
  8
Livello 01
 62
     9
420
 12632256
100
AcDbCircle
 10
-14.4
 20
7.550000000000003
 30
0.0
 40
0.3
210
0.0
220
1.0
230
0.0
100
AcDbArc
 50
90.0
 51
180.0
  0
ARC
  5
F5
330
61
100
AcDbEntity
  8
Livello 01
 62
     9
420
 12632256
100
AcDbCircle
 10
14.4
 20
-7.55
 30
0.0000000000000035
 40
0.3
100
AcDbArc
 50
270.0
 51
0.0
  0
ARC
  5
F6
330
61
100
AcDbEntity
  8
Livello 01
 62
     9
420
 12632256
100
AcDbCircle
 10
12.0
 20
8.550000000000004
 30
0.0000000000000035
 40
0.3
100
AcDbArc
 50
90.0
 51
180.0
  0
ARC
  5
F7
330
61
100
AcDbEntity
  8
Livello 01
 62
     9
420
 12632256
100
AcDbCircle
 10
-12.0
 20
-8.549999999999997
 30
0.0000000000000028
 40
0.3
210
0.0
220
1.0
230
0.0
100
AcDbArc
 50
270.0
 51
0.0
  0
ARC
  5
F8
330
61
100
AcDbEntity
  8
Livello 01
 62
     9
420
 12632256
100
AcDbCircle
 10
-12.0
 20
-8.549999999999997
 30
-0.0000000000000035
 40
0.3
210
0.0
220
0.0
230
-1.0
100
AcDbArc
 50
270.0
 51
0.0
  0
CIRCLE
  5
F9
330
61
100
AcDbEntity
  8
Livello 01
 62
     9
420
 12632256
100
AcDbCircle
 10
0.0000000000000022
 20
0.0000000000000037
 30
13.2
 40
5.0
210
1.0
220
0.0
230
0.0
  0
LINE
  5
FA
330
61
100
AcDbEntity
  8
Livello 01
 62
     9
420
 12632256
100
AcDbLine
 10
7.199999999999999
 20
0.0000000000000032
 30
5.000000000000003
 11
19.2
 21
0.0000000000000011
 31
5.000000000000004
  0
LINE
  5
FB
330
61
100
AcDbEntity
  8
Livello 01
 62
     9
420
 12632256
100
AcDbLine
 10
7.199999999999998
 20
-4.999999999999996
 30
0.0000000000000037
 11
19.2
 21
-4.999999999999999
 31
0.0000000000000037
  0
LINE
  5
FC
330
61
100
AcDbEntity
  8
Livello 01
 62
     9
420
 12632256
100
AcDbLine
 10
7.199999999999999
 20
0.0000000000000032
 30
-4.999999999999995
 11
19.2
 21
0.0000000000000011
 31
-4.999999999999996
  0
CIRCLE
  5
FD
330
61
100
AcDbEntity
  8
Livello 01
 62
     9
420
 12632256
100
AcDbCircle
 10
0.0000000000001819
 20
0.0
 30
-2.599999999999994
 40
2.75
210
-1.0
220
0.0
230
0.0
  0
LINE
  5
FE
330
61
100
AcDbEntity
  8
Livello 01
 62
     9
420
 12632256
100
AcDbLine
 10
5.199999999999818
 20
-0.0000000000000254
 30
2.75
 11
-0.0000000000001616
 21
-0.0000000000003311
 31
2.75
  0
LINE
  5
FF
330
61
100
AcDbEntity
  8
Livello 01
 62
     9
420
 12632256
100
AcDbLine
 10
5.199999999999656
 20
2.749999999999971
 30
-0.0000000000000037
 11
-0.0000000000003233
 21
2.749999999999665
 31
-0.0000000000000037
  0
LINE
  5
100
330
61
100
AcDbEntity
  8
Livello 01
 62
     9
420
 12632256
100
AcDbLine
 10
5.199999999999818
 20
-0.0000000000000328
 30
-2.75
 11
-0.0000000000001616
 21
-0.0000000000003384
 31
-2.75
  0
LINE
  5
101
330
61
100
AcDbEntity
  8
Livello 01
 62
     9
420
 12632256
100
AcDbLine
 10
5.199999999999979
 20
0.0000000000000035
 30
2.750000000000004
 11
7.199999999999997
 21
0.0000000000000033
 31
4.750000000000045
  0
LINE
  5
102
330
61
100
AcDbEntity
  8
Livello 01
 62
     9
420
 12632256
100
AcDbLine
 10
5.199999999999979
 20
-2.749999999999996
 30
0.0000000000000037
 11
7.199999999999996
 21
-4.750000000000038
 31
0.0000000000000037
  0
LINE
  5
103
330
61
100
AcDbEntity
  8
Livello 01
 62
     9
420
 12632256
100
AcDbLine
 10
5.199999999999979
 20
0.0000000000000035
 30
-2.749999999999996
 11
7.199999999999997
 21
0.0000000000000033
 31
-4.750000000000039
  0
ENDBLK
  5
105
330
61
100
AcDbEntity
  8
0
100
AcDbBlockEnd
  0
BLOCK
  5
110
330
107
100
AcDbEntity
  8
0
100
AcDbBlockBegin
  2
10OR0616000
 70
     0
 10
0.0
 20
0.0
 30
0.0
  3
10OR0616000
  1

  0
CIRCLE
  5
108
330
107
100
AcDbEntity
  8
Livello 01
 62
     9
420
 12632256
100
AcDbCircle
 10
0.0
 20
0.0
 30
0.89
 40
7.989999999999999
  0
CIRCLE
  5
109
330
107
100
AcDbEntity
  8
Livello 01
 62
     9
420
 12632256
100
AcDbCircle
 10
7.1
 20
0.89
 30
0.0
 40
0.89
210
0.0
220
-1.0
230
0.0
  0
CIRCLE
  5
10A
330
107
100
AcDbEntity
  8
Livello 01
 62
     9
420
 12632256
100
AcDbCircle
 10
0.0
 20
0.0
 30
1.78
 40
7.1
  0
CIRCLE
  5
10B
330
107
100
AcDbEntity
  8
Livello 01
 62
     9
420
 12632256
100
AcDbCircle
 10
0.0
 20
0.0
 30
0.89
 40
6.21
  0
CIRCLE
  5
10C
330
107
100
AcDbEntity
  8
Livello 01
 62
     9
420
 12632256
100
AcDbCircle
 10
0.0
 20
0.0
 30
0.0
 40
7.1
  0
CIRCLE
  5
10D
330
107
100
AcDbEntity
  8
Livello 01
 62
     9
420
 12632256
100
AcDbCircle
 10
7.1
 20
0.89
 30
0.0
 40
0.89
210
1.0
220
0.0
230
0.0
  0
CIRCLE
  5
10E
330
107
100
AcDbEntity
  8
Livello 01
 62
     9
420
 12632256
100
AcDbCircle
 10
7.1
 20
0.89
 30
0.0
 40
0.89
210
0.0
220
1.0
230
0.0
  0
CIRCLE
  5
10F
330
107
100
AcDbEntity
  8
Livello 01
 62
     9
420
 12632256
100
AcDbCircle
 10
7.1
 20
0.89
 30
0.0
 40
0.89
210
-1.0
220
0.0
230
0.0
  0
ENDBLK
  5
111
330
107
100
AcDbEntity
  8
0
100
AcDbBlockEnd
  0
BLOCK
  5
11C
330
113
100
AcDbEntity
  8
0
100
AcDbBlockBegin
  2
10OR0126000
 70
     0
 10
0.0
 20
0.0
 30
0.0
  3
10OR0126000
  1

  0
CIRCLE
  5
114
330
113
100
AcDbEntity
  8
Livello 01
 62
     9
420
 12632256
100
AcDbCircle
 10
0.0
 20
0.0
 30
0.89
 40
8.78
  0
CIRCLE
  5
115
330
113
100
AcDbEntity
  8
Livello 01
 62
     9
420
 12632256
100
AcDbCircle
 10
7.89
 20
0.89
 30
0.0
 40
0.89
210
0.0
220
-1.0
230
0.0
  0
CIRCLE
  5
116
330
113
100
AcDbEntity
  8
Livello 01
 62
     9
420
 12632256
100
AcDbCircle
 10
0.0
 20
0.0
 30
1.78
 40
7.89
  0
CIRCLE
  5
117
330
113
100
AcDbEntity
  8
Livello 01
 62
     9
420
 12632256
100
AcDbCircle
 10
0.0
 20
0.0
 30
0.89
 40
7.0
  0
CIRCLE
  5
118
330
113
100
AcDbEntity
  8
Livello 01
 62
     9
420
 12632256
100
AcDbCircle
 10
0.0
 20
0.0
 30
0.0
 40
7.89
  0
CIRCLE
  5
119
330
113
100
AcDbEntity
  8
Livello 01
 62
     9
420
 12632256
100
AcDbCircle
 10
7.89
 20
0.89
 30
0.0
 40
0.89
210
1.0
220
0.0
230
0.0
  0
CIRCLE
  5
11A
330
113
100
AcDbEntity
  8
Livello 01
 62
     9
420
 12632256
100
AcDbCircle
 10
7.89
 20
0.89
 30
0.0
 40
0.89
210
0.0
220
1.0
230
0.0
  0
CIRCLE
  5
11B
330
113
100
AcDbEntity
  8
Livello 01
 62
     9
420
 12632256
100
AcDbCircle
 10
7.89
 20
0.89
 30
0.0
 40
0.89
210
-1.0
220
0.0
230
0.0
  0
ENDBLK
  5
11D
330
113
100
AcDbEntity
  8
0
100
AcDbBlockEnd
  0
BLOCK
  5
159
330
11F
100
AcDbEntity
  8
0
100
AcDbBlockBegin
  2
10VI0756000
 70
     0
 10
0.0
 20
0.0
 30
0.0
  3
10VI0756000
  1

  0
SPLINE
  5
120
330
11F
100
AcDbEntity
  8
Livello 01
100
AcDbSpline
210
0.0
220
0.0
230
1.0
 70
    24
 71
     2
 72
     6
 73
     3
 74
     0
 42
0.0000000001
 43
0.0000000001
 40
-1.443375672974057
 40
-1.443375672974057
 40
-1.443375672974057
 40
0.0
 40
0.0
 40
0.0
 10
0.721687836487032
 20
1.24999999999998
 30
0.0
 10
0.0000000000000036
 20
1.24999999999998
 30
0.0
 10
-0.721687836487025
 20
1.24999999999998
 30
0.0
  0
SPLINE
  5
121
330
11F
100
AcDbEntity
  8
Livello 01
100
AcDbSpline
210
0.0
220
0.0
230
1.0
 70
    24
 71
     2
 72
     6
 73
     3
 74
     0
 42
0.0000000001
 43
0.0000000001
 40
-1.443375672974057
 40
-1.443375672974057
 40
-1.443375672974057
 40
0.0
 40
0.0
 40
0.0
 10
-0.721687836487074
 20
-1.25000000000001
 30
0.0
 10
-0.0000000000000455
 20
-1.25000000000001
 30
0.0
 10
0.721687836486983
 20
-1.25000000000001
 30
0.0
  0
CIRCLE
  5
122
330
11F
100
AcDbEntity
  8
Livello 01
100
AcDbCircle
 10
0.0
 20
0.0
 30
-9.75
 40
2.5
  0
LINE
  5
123
330
11F
100
AcDbEntity
  8
Livello 01
100
AcDbLine
 10
2.5
 20
0.0
 30
-9.750000000000002
 11
2.5
 21
0.0
 31
-0.3499999999999974
  0
SPLINE
  5
124
330
11F
100
AcDbEntity
  8
Livello 01
100
AcDbSpline
210
0.0
220
0.0
230
1.0
 70
    24
 71
     2
 72
     6
 73
     3
 74
     0
 42
0.0000000001
 43
0.0000000001
 40
0.0
 40
0.0
 40
0.0
 40
1.443375672974063
 40
1.443375672974063
 40
1.443375672974063
 10
-1.44337567297408
 20
0.0000000000000034
 30
0.0
 10
-1.082531754730577
 20
-0.6250000000000033
 30
0.0
 10
-0.721687836487074
 20
-1.25000000000001
 30
0.0
  0
SPLINE
  5
125
330
11F
100
AcDbEntity
  8
Livello 01
100
AcDbSpline
210
0.0
220
0.0
230
1.0
 70
    24
 71
     2
 72
     6
 73
     3
 74
     0
 42
0.0000000001
 43
0.0000000001
 40
0.0
 40
0.0
 40
0.0
 40
2.5
 40
2.5
 40
2.5
 10
-0.721687836487074
 20
-1.25000000000001
 30
0.0
 10
-0.721687836487074
 20
-1.25000000000001
 30
-1.25
 10
-0.721687836487074
 20
-1.25000000000001
 30
-2.5
  0
SPLINE
  5
126
330
11F
100
AcDbEntity
  8
Livello 01
100
AcDbSpline
210
0.0
220
0.0
230
1.0
 70
    24
 71
     2
 72
     6
 73
     3
 74
     0
 42
0.0000000001
 43
0.0000000001
 40
0.0
 40
0.0
 40
0.0
 40
1.443375672974063
 40
1.443375672974063
 40
1.443375672974063
 10
-0.721687836487074
 20
-1.25000000000001
 30
-2.5
 10
-1.082531754730577
 20
-0.6250000000000033
 30
-2.5
 10
-1.44337567297408
 20
0.0000000000000034
 30
-2.5
  0
SPLINE
  5
127
330
11F
100
AcDbEntity
  8
Livello 01
100
AcDbSpline
210
0.0
220
0.0
230
1.0
 70
    24
 71
     2
 72
     6
 73
     3
 74
     0
 42
0.0000000001
 43
0.0000000001
 40
0.0
 40
0.0
 40
0.0
 40
2.5
 40
2.5
 40
2.5
 10
-1.44337567297408
 20
0.0000000000000034
 30
-2.5
 10
-1.44337567297408
 20
0.0000000000000034
 30
-1.25
 10
-1.44337567297408
 20
0.0000000000000034
 30
0.0
  0
SPLINE
  5
128
330
11F
100
AcDbEntity
  8
Livello 01
100
AcDbSpline
210
0.0
220
0.0
230
1.0
 70
    24
 71
     2
 72
     6
 73
     3
 74
     0
 42
0.0000000001
 43
0.0000000001
 40
0.0
 40
0.0
 40
0.0
 40
1.443375672974056
 40
1.443375672974056
 40
1.443375672974056
 10
-0.721687836487025
 20
1.24999999999998
 30
0.0
 10
-1.082531754730553
 20
0.6249999999999917
 30
0.0
 10
-1.44337567297408
 20
0.0000000000000034
 30
0.0
  0
SPLINE
  5
129
330
11F
100
AcDbEntity
  8
Livello 01
100
AcDbSpline
210
0.0
220
0.0
230
1.0
 70
    24
 71
     2
 72
     6
 73
     3
 74
     0
 42
0.0000000001
 43
0.0000000001
 40
0.0
 40
0.0
 40
0.0
 40
1.443375672974056
 40
1.443375672974056
 40
1.443375672974056
 10
-1.44337567297408
 20
0.0000000000000034
 30
-2.5
 10
-1.082531754730553
 20
0.6249999999999917
 30
-2.5
 10
-0.721687836487025
 20
1.24999999999998
 30
-2.5
  0
SPLINE
  5
12A
330
11F
100
AcDbEntity
  8
Livello 01
100
AcDbSpline
210
0.0
220
0.0
230
1.0
 70
    24
 71
     2
 72
     6
 73
     3
 74
     0
 42
0.0000000001
 43
0.0000000001
 40
0.0
 40
0.0
 40
0.0
 40
2.5
 40
2.5
 40
2.5
 10
-0.721687836487025
 20
1.24999999999998
 30
-2.5
 10
-0.721687836487025
 20
1.24999999999998
 30
-1.25
 10
-0.721687836487025
 20
1.24999999999998
 30
0.0
  0
SPLINE
  5
12B
330
11F
100
AcDbEntity
  8
Livello 01
100
AcDbSpline
210
0.0
220
0.0
230
1.0
 70
    24
 71
     2
 72
     6
 73
     3
 74
     0
 42
0.0000000001
 43
0.0000000001
 40
0.0
 40
0.0
 40
0.0
 40
1.443375672974057
 40
1.443375672974057
 40
1.443375672974057
 10
-0.721687836487025
 20
1.24999999999998
 30
-2.5
 10
0.0000000000000036
 20
1.24999999999998
 30
-2.5
 10
0.721687836487032
 20
1.24999999999998
 30
-2.5
  0
SPLINE
  5
12C
330
11F
100
AcDbEntity
  8
Livello 01
100
AcDbSpline
210
0.0
220
0.0
230
1.0
 70
    24
 71
     2
 72
     6
 73
     3
 74
     0
 42
0.0000000001
 43
0.0000000001
 40
0.0
 40
0.0
 40
0.0
 40
2.5
 40
2.5
 40
2.5
 10
0.721687836487032
 20
1.24999999999998
 30
-2.5
 10
0.721687836487032
 20
1.24999999999998
 30
-1.25
 10
0.721687836487032
 20
1.24999999999998
 30
0.0
  0
SPLINE
  5
12D
330
11F
100
AcDbEntity
  8
Livello 01
100
AcDbSpline
210
0.0
220
0.0
230
1.0
 70
    24
 71
     2
 72
     6
 73
     3
 74
     0
 42
0.0000000001
 43
0.0000000001
 40
0.0
 40
0.0
 40
0.0
 40
1.443375672974052
 40
1.443375672974052
 40
1.443375672974052
 10
1.44337567297403
 20
-0.0000000000000252
 30
0.0
 10
1.082531754730531
 20
0.6249999999999775
 30
0.0
 10
0.721687836487032
 20
1.24999999999998
 30
0.0
  0
SPLINE
  5
12E
330
11F
100
AcDbEntity
  8
Livello 01
100
AcDbSpline
210
0.0
220
0.0
230
1.0
 70
    24
 71
     2
 72
     6
 73
     3
 74
     0
 42
0.0000000001
 43
0.0000000001
 40
0.0
 40
0.0
 40
0.0
 40
1.443375672974052
 40
1.443375672974052
 40
1.443375672974052
 10
0.721687836487032
 20
1.24999999999998
 30
-2.5
 10
1.082531754730531
 20
0.6249999999999775
 30
-2.5
 10
1.44337567297403
 20
-0.0000000000000252
 30
-2.5
  0
SPLINE
  5
12F
330
11F
100
AcDbEntity
  8
Livello 01
100
AcDbSpline
210
0.0
220
0.0
230
1.0
 70
    24
 71
     2
 72
     6
 73
     3
 74
     0
 42
0.0000000001
 43
0.0000000001
 40
0.0
 40
0.0
 40
0.0
 40
2.5
 40
2.5
 40
2.5
 10
1.44337567297403
 20
-0.0000000000000252
 30
-2.5
 10
1.44337567297403
 20
-0.0000000000000252
 30
-1.25
 10
1.44337567297403
 20
-0.0000000000000252
 30
0.0
  0
SPLINE
  5
130
330
11F
100
AcDbEntity
  8
Livello 01
100
AcDbSpline
210
0.0
220
0.0
230
1.0
 70
    24
 71
     2
 72
     6
 73
     3
 74
     0
 42
0.0000000001
 43
0.0000000001
 40
0.0
 40
0.0
 40
0.0
 40
1.443375672974059
 40
1.443375672974059
 40
1.443375672974059
 10
0.721687836486983
 20
-1.25000000000001
 30
0.0
 10
1.082531754730506
 20
-0.6250000000000175
 30
0.0
 10
1.44337567297403
 20
-0.0000000000000252
 30
0.0
  0
SPLINE
  5
131
330
11F
100
AcDbEntity
  8
Livello 01
100
AcDbSpline
210
0.0
220
0.0
230
1.0
 70
    24
 71
     2
 72
     6
 73
     3
 74
     0
 42
0.0000000001
 43
0.0000000001
 40
0.0
 40
0.0
 40
0.0
 40
1.443375672974059
 40
1.443375672974059
 40
1.443375672974059
 10
1.44337567297403
 20
-0.0000000000000252
 30
-2.5
 10
1.082531754730506
 20
-0.6250000000000175
 30
-2.5
 10
0.721687836486983
 20
-1.25000000000001
 30
-2.5
  0
SPLINE
  5
132
330
11F
100
AcDbEntity
  8
Livello 01
100
AcDbSpline
210
0.0
220
0.0
230
1.0
 70
    24
 71
     2
 72
     6
 73
     3
 74
     0
 42
0.0000000001
 43
0.0000000001
 40
0.0
 40
0.0
 40
0.0
 40
2.5
 40
2.5
 40
2.5
 10
0.721687836486983
 20
-1.25000000000001
 30
-2.5
 10
0.721687836486983
 20
-1.25000000000001
 30
-1.25
 10
0.721687836486983
 20
-1.25000000000001
 30
0.0
  0
SPLINE
  5
133
330
11F
100
AcDbEntity
  8
Livello 01
100
AcDbSpline
210
0.0
220
0.0
230
1.0
 70
    24
 71
     2
 72
     6
 73
     3
 74
     0
 42
0.0000000001
 43
0.0000000001
 40
0.0
 40
0.0
 40
0.0
 40
1.443375672974057
 40
1.443375672974057
 40
1.443375672974057
 10
0.721687836486983
 20
-1.25000000000001
 30
-2.5
 10
-0.0000000000000455
 20
-1.25000000000001
 30
-2.5
 10
-0.721687836487074
 20
-1.25000000000001
 30
-2.5
  0
CIRCLE
  5
134
330
11F
100
AcDbEntity
  8
Livello 01
100
AcDbCircle
 10
0.0
 20
0.0
 30
0.0
 40
2.15
210
0.0
220
0.0
230
-1.0
  0
ARC
  5
135
330
11F
100
AcDbEntity
  8
Livello 01
100
AcDbCircle
 10
0.0
 20
0.0
 30
-0.35
 40
2.5
100
AcDbArc
 50
180.0
 51
0.000000000000007
  0
LINE
  5
136
330
11F
100
AcDbEntity
  8
Livello 01
100
AcDbLine
 10
-2.15
 20
0.0
 30
-0.0000000000000004
 11
-2.5
 21
0.0
 31
-0.35
  0
ARC
  5
137
330
11F
100
AcDbEntity
  8
Livello 01
100
AcDbCircle
 10
0.0
 20
0.0
 30
-0.35
 40
2.5
100
AcDbArc
 50
0.000000000000007
 51
180.0
  0
CIRCLE
  5
138
330
11F
100
AcDbEntity
  8
Livello 01
100
AcDbCircle
 10
0.0
 20
0.0
 30
-12.0
 40
0.25
  0
LINE
  5
139
330
11F
100
AcDbEntity
  8
Livello 01
100
AcDbLine
 10
0.25
 20
0.0
 30
-12.0
 11
2.499999999999999
 21
0.0
 31
-9.75
  0
LINE
  5
13A
330
11F
100
AcDbEntity
  8
Livello 01
100
AcDbLine
 10
2.15
 20
-0.0000000000000002
 30
0.0
 11
1.443375672974015
 21
-0.0000000000000002
 31
0.0
  0
LINE
  5
13B
330
11F
100
AcDbEntity
  8
Livello 01
100
AcDbLine
 10
-1.443375672974078
 20
-0.0000000000000002
 30
0.0
 11
-2.149999999999999
 21
-0.0000000000000002
 31
0.0
  0
LINE
  5
13C
330
11F
100
AcDbEntity
  8
Livello 01
100
AcDbLine
 10
0.0000000000000002
 20
-2.149999999999999
 30
0.0
 11
0.0000000000000002
 21
-1.25000000000001
 31
0.0
  0
LINE
  5
13D
330
11F
100
AcDbEntity
  8
Livello 01
100
AcDbLine
 10
0.0000000000000002
 20
1.24999999999998
 30
0.0
 11
0.0000000000000002
 21
2.150000000000001
 31
0.0
  0
CIRCLE
  5
13E
330
11F
100
AcDbEntity
  8
Livello 01
100
AcDbCircle
 10
0.0
 20
0.0
 30
-5.050000000000004
 40
2.5
  0
LINE
  5
13F
330
11F
100
AcDbEntity
  8
Livello 01
100
AcDbLine
 10
0.0
 20
2.5
 30
-9.749999999999998
 11
0.0
 21
2.5
 31
-0.349999999999998
  0
LINE
  5
140
330
11F
100
AcDbEntity
  8
Livello 01
100
AcDbLine
 10
-2.5
 20
0.0
 30
-9.749999999999998
 11
-2.5
 21
0.0
 31
-0.349999999999998
  0
LINE
  5
141
330
11F
100
AcDbEntity
  8
Livello 01
100
AcDbLine
 10
0.0
 20
-2.5
 30
-9.749999999999998
 11
0.0
 21
-2.5
 31
-0.349999999999998
  0
LINE
  5
142
330
11F
100
AcDbEntity
  8
Livello 01
100
AcDbLine
 10
-0.7216878364870747
 20
-1.25000000000001
 30
-1.25
 11
-1.44337567297408
 21
0.0000000000000034
 31
-1.25
  0
LINE
  5
143
330
11F
100
AcDbEntity
  8
Livello 01
100
AcDbLine
 10
-1.082531754730577
 20
-0.6250000000000034
 30
-2.5
 11
-1.082531754730577
 21
-0.6250000000000034
 31
0.0000000000000001
  0
LINE
  5
144
330
11F
100
AcDbEntity
  8
Livello 01
100
AcDbLine
 10
-1.44337567297408
 20
0.0000000000000034
 30
-1.25
 11
-0.7216878364870288
 21
1.249999999999982
 31
-1.25
  0
LINE
  5
145
330
11F
100
AcDbEntity
  8
Livello 01
100
AcDbLine
 10
-1.082531754730554
 20
0.624999999999993
 30
-2.5
 11
-1.082531754730554
 21
0.624999999999993
 31
0.0000000000000001
  0
LINE
  5
146
330
11F
100
AcDbEntity
  8
Livello 01
100
AcDbLine
 10
0.0000000000000036
 20
1.24999999999998
 30
0.0
 11
0.0000000000000036
 21
1.24999999999998
 31
-2.5
  0
LINE
  5
147
330
11F
100
AcDbEntity
  8
Livello 01
100
AcDbLine
 10
-0.721687836487025
 20
1.24999999999998
 30
-1.25
 11
0.7216878364870319
 21
1.24999999999998
 31
-1.25
  0
LINE
  5
148
330
11F
100
AcDbEntity
  8
Livello 01
100
AcDbLine
 10
0.72168783648703
 20
1.249999999999979
 30
-1.25
 11
1.44337567297403
 21
-0.000000000000025
 31
-1.25
  0
LINE
  5
149
330
11F
100
AcDbEntity
  8
Livello 01
100
AcDbLine
 10
1.08253175473053
 20
0.6249999999999768
 30
-2.5
 11
1.08253175473053
 21
0.6249999999999768
 31
0.0000000000000001
  0
LINE
  5
14A
330
11F
100
AcDbEntity
  8
Livello 01
100
AcDbLine
 10
1.44337567297403
 20
-0.0000000000000252
 30
-1.25
 11
0.721687836486978
 21
-1.250000000000007
 31
-1.25
  0
LINE
  5
14B
330
11F
100
AcDbEntity
  8
Livello 01
100
AcDbLine
 10
1.082531754730504
 20
-0.6250000000000162
 30
-2.5
 11
1.082531754730504
 21
-0.6250000000000162
 31
0.0000000000000001
  0
LINE
  5
14C
330
11F
100
AcDbEntity
  8
Livello 01
100
AcDbLine
 10
0.721687836486983
 20
-1.25000000000001
 30
-1.25
 11
-0.721687836487074
 21
-1.25000000000001
 31
-1.25
  0
LINE
  5
14D
330
11F
100
AcDbEntity
  8
Livello 01
100
AcDbLine
 10
-0.0000000000000455
 20
-1.25000000000001
 30
-2.5
 11
-0.0000000000000455
 21
-1.25000000000001
 31
0.0000000000000001
  0
LINE
  5
14E
330
11F
100
AcDbEntity
  8
Livello 01
100
AcDbLine
 10
1.443375672974024
 20
-0.0000000000000149
 30
-2.5
 11
-1.44337567297407
 21
-0.0000000000000149
 31
-2.5
  0
LINE
  5
14F
330
11F
100
AcDbEntity
  8
Livello 01
100
AcDbLine
 10
-0.0000000000000253
 20
-1.25000000000001
 30
-2.5
 11
-0.0000000000000253
 21
1.24999999999998
 31
-2.5
  0
LINE
  5
150
330
11F
100
AcDbEntity
  8
Livello 01
100
AcDbLine
 10
0.0
 20
2.149999999999999
 30
-0.0000000000000003
 11
0.0
 21
2.5
 31
-0.3500000000000004
  0
LINE
  5
151
330
11F
100
AcDbEntity
  8
Livello 01
100
AcDbLine
 10
2.149999999999999
 20
0.0
 30
-0.0000000000000003
 11
2.5
 21
0.0
 31
-0.3500000000000004
  0
LINE
  5
152
330
11F
100
AcDbEntity
  8
Livello 01
100
AcDbLine
 10
0.0
 20
-2.149999999999999
 30
-0.0000000000000003
 11
0.0
 21
-2.5
 31
-0.3500000000000004
  0
CIRCLE
  5
153
330
11F
100
AcDbEntity
  8
Livello 01
100
AcDbCircle
 10
0.0
 20
0.0
 30
-10.845
 40
1.404999999999999
  0
LINE
  5
154
330
11F
100
AcDbEntity
  8
Livello 01
100
AcDbLine
 10
0.0
 20
0.2499999999999999
 30
-12.0
 11
0.0
 21
2.499999999999999
 31
-9.75
  0
LINE
  5
155
330
11F
100
AcDbEntity
  8
Livello 01
100
AcDbLine
 10
-0.2499999999999999
 20
0.0
 30
-12.0
 11
-2.499999999999999
 21
0.0
 31
-9.75
  0
LINE
  5
156
330
11F
100
AcDbEntity
  8
Livello 01
100
AcDbLine
 10
0.0
 20
-0.2499999999999999
 30
-12.0
 11
0.0
 21
-2.499999999999999
 31
-9.75
  0
LINE
  5
157
330
11F
100
AcDbEntity
  8
Livello 01
100
AcDbLine
 10
0.2499999999999999
 20
0.0
 30
-12.0
 11
-0.2499999999999999
 21
0.0
 31
-12.0
  0
LINE
  5
158
330
11F
100
AcDbEntity
  8
Livello 01
100
AcDbLine
 10
0.0
 20
-0.2499999999999999
 30
-12.0
 11
0.0
 21
0.2499999999999999
 31
-12.0
  0
ENDBLK
  5
15A
330
11F
100
AcDbEntity
  8
0
100
AcDbBlockEnd
  0
BLOCK
  5
165
330
15C
100
AcDbEntity
  8
0
100
AcDbBlockBegin
  2
10OR1226000
 70
     0
 10
0.0
 20
0.0
 30
0.0
  3
10OR1226000
  1

  0
CIRCLE
  5
15D
330
15C
100
AcDbEntity
  8
Livello 01
 62
   250
420
  3355443
100
AcDbCircle
 10
0.0
 20
0.0
 30
1.31
 40
18.33
  0
CIRCLE
  5
15E
330
15C
100
AcDbEntity
  8
Livello 01
 62
   250
420
  3355443
100
AcDbCircle
 10
17.02
 20
1.31
 30
0.0
 40
1.31
210
0.0
220
-1.0
230
0.0
  0
CIRCLE
  5
15F
330
15C
100
AcDbEntity
  8
Livello 01
 62
   250
420
  3355443
100
AcDbCircle
 10
0.0
 20
0.0
 30
2.62
 40
17.02
  0
CIRCLE
  5
160
330
15C
100
AcDbEntity
  8
Livello 01
 62
   250
420
  3355443
100
AcDbCircle
 10
0.0
 20
0.0
 30
1.31
 40
15.71
  0
CIRCLE
  5
161
330
15C
100
AcDbEntity
  8
Livello 01
 62
   250
420
  3355443
100
AcDbCircle
 10
0.0
 20
0.0
 30
0.0
 40
17.02
  0
CIRCLE
  5
162
330
15C
100
AcDbEntity
  8
Livello 01
 62
   250
420
  3355443
100
AcDbCircle
 10
17.02
 20
1.31
 30
0.0
 40
1.31
210
1.0
220
0.0
230
0.0
  0
CIRCLE
  5
163
330
15C
100
AcDbEntity
  8
Livello 01
 62
   250
420
  3355443
100
AcDbCircle
 10
17.02
 20
1.31
 30
0.0
 40
1.31
210
0.0
220
1.0
230
0.0
  0
CIRCLE
  5
164
330
15C
100
AcDbEntity
  8
Livello 01
 62
   250
420
  3355443
100
AcDbCircle
 10
17.02
 20
1.31
 30
0.0
 40
1.31
210
-1.0
220
0.0
230
0.0
  0
ENDBLK
  5
166
330
15C
100
AcDbEntity
  8
0
100
AcDbBlockEnd
  0
BLOCK
  5
26C
330
168
100
AcDbEntity
  8
0
100
AcDbBlockBegin
  2
10BR09660YY
 70
     0
 10
0.0
 20
0.0
 30
0.0
  3
10BR09660YY
  1

  0
ARC
  5
169
330
168
100
AcDbEntity
  8
Livello 01
100
AcDbCircle
 10
0.0
 20
12.7596949244489
 30
12.82706733725256
 40
8.9
210
0.0
220
0.5000000000000019
230
-0.8660254037844376
100
AcDbArc
 50
90.00000000000001
 51
270.0
  0
LINE
  5
16A
330
168
100
AcDbEntity
  8
Livello 01
100
AcDbLine
 10
0.0
 20
25.69912625116513
 30
-1.19280252824725
 11
0.0
 21
25.17137971141989
 31
-0.2787187078898299
  0
ARC
  5
16B
330
168
100
AcDbEntity
  8
Livello 01
100
AcDbCircle
 10
0.0
 20
12.7596949244489
 30
12.82706733725256
 40
8.9
210
0.0
220
0.5000000000000019
230
-0.8660254037844376
100
AcDbArc
 50
270.0
 51
90.0
  0
SPLINE
  5
16C
330
168
100
AcDbEntity
  8
Livello 01
100
AcDbSpline
210
0.0
220
0.0
230
1.0
 70
    24
 71
     2
 72
     6
 73
     3
 74
     0
 42
0.0000000001
 43
0.0000000001
 40
0.0
 40
0.0
 40
0.0
 40
4.5
 40
4.5
 40
4.5
 10
17.15
 20
-47.75
 30
-14.5645974884306
 10
17.15
 20
-45.5
 30
-14.5645974884306
 10
17.15
 20
-43.25
 30
-14.5645974884306
  0
ARC
  5
16D
330
168
100
AcDbEntity
  8
Livello 01
100
AcDbCircle
 10
0.0000000000000039
 20
-0.0000000000000577
 30
-40.35
 40
22.49999999999992
210
0.0
220
1.0
230
0.0
100
AcDbArc
 50
230.7035197608123
 51
309.2964802391876
  0
SPLINE
  5
16E
330
168
100
AcDbEntity
  8
Livello 01
100
AcDbSpline
210
0.0
220
0.0
230
1.0
 70
    24
 71
     2
 72
     6
 73
     3
 74
     0
 42
0.0000000001
 43
0.0000000001
 40
0.0
 40
0.0
 40
0.0
 40
4.5
 40
4.5
 40
4.5
 10
-17.15
 20
-43.25
 30
-14.5645974884306
 10
-17.15
 20
-45.5
 30
-14.5645974884306
 10
-17.15
 20
-47.75
 30
-14.5645974884306
  0
ARC
  5
16F
330
168
100
AcDbEntity
  8
Livello 01
100
AcDbCircle
 10
0.0000000000000039
 20
-0.0000000000000577
 30
50.65
 40
22.49999999999992
210
0.0
220
-1.0
230
0.0
100
AcDbArc
 50
230.7035197608123
 51
309.2964802391876
  0
ARC
  5
170
330
168
100
AcDbEntity
  8
Livello 01
100
AcDbCircle
 10
0.000000000000016
 20
0.0000000000000107
 30
51.64999999999987
 40
22.49999999999998
210
0.0
220
-1.0
230
0.0
100
AcDbArc
 50
36.86989764584401
 51
70.99919763708621
  0
SPLINE
  5
171
330
168
100
AcDbEntity
  8
Livello 01
100
AcDbSpline
210
0.0
220
0.0
230
1.0
 70
    24
 71
     2
 72
     6
 73
     3
 74
     0
 42
0.0000000001
 43
0.0000000001
 40
0.0
 40
0.0
 40
0.0
 40
2.350000000000001
 40
2.350000000000001
 40
2.350000000000001
 10
7.32558139534884
 20
-51.65
 30
21.2740653665471
 10
7.32558139534884
 20
-52.825
 30
21.2740653665471
 10
7.32558139534884
 20
-54.0
 30
21.2740653665471
  0
ARC
  5
172
330
168
100
AcDbEntity
  8
Livello 01
100
AcDbCircle
 10
-0.0000000000000022
 20
-0.0000000000000426
 30
-54.0
 40
22.50000000000004
210
0.0
220
1.0
230
0.0
100
AcDbArc
 50
109.0008023629138
 51
70.99919763708621
  0
SPLINE
  5
173
330
168
100
AcDbEntity
  8
Livello 01
100
AcDbSpline
210
0.0
220
0.0
230
1.0
 70
    24
 71
     2
 72
     6
 73
     3
 74
     0
 42
0.0000000001
 43
0.0000000001
 40
0.0
 40
0.0
 40
0.0
 40
2.350000000000001
 40
2.350000000000001
 40
2.350000000000001
 10
-7.32558139534884
 20
-54.0
 30
21.2740653665471
 10
-7.32558139534884
 20
-52.825
 30
21.2740653665471
 10
-7.32558139534884
 20
-51.65
 30
21.2740653665471
  0
ARC
  5
174
330
168
100
AcDbEntity
  8
Livello 01
100
AcDbCircle
 10
-0.0000000000000195
 20
0.0000000000000266
 30
51.64999999999985
 40
22.49999999999996
210
0.0
220
-1.0
230
0.0
100
AcDbArc
 50
109.0008023629138
 51
143.130102354156
  0
SPLINE
  5
175
330
168
100
AcDbEntity
  8
Livello 01
100
AcDbSpline
210
0.0
220
0.0
230
1.0
 70
    24
 71
     2
 72
     6
 73
     3
 74
     0
 42
0.0000000001
 43
0.0000000001
 40
0.0
 40
0.0
 40
0.0
 40
12.3
 40
12.3
 40
12.3
 10
-18.0
 20
-51.65
 30
13.5
 10
-18.0
 20
-45.5
 30
13.5
 10
-18.0
 20
-39.35
 30
13.5
  0
ARC
  5
176
330
168
100
AcDbEntity
  8
Livello 01
100
AcDbCircle
 10
0.0
 20
0.0000000000000195
 30
-39.35
 40
22.49999999999999
210
0.0
220
1.0
230
0.0
100
AcDbArc
 50
36.86989764584398
 51
89.99999999999999
  0
ARC
  5
177
330
168
100
AcDbEntity
  8
Livello 01
100
AcDbCircle
 10
0.0
 20
0.0000000000000195
 30
-39.35
 40
22.49999999999999
210
0.0
220
1.0
230
0.0
100
AcDbArc
 50
89.99999999999999
 51
143.130102354156
  0
SPLINE
  5
178
330
168
100
AcDbEntity
  8
Livello 01
100
AcDbSpline
210
0.0
220
0.0
230
1.0
 70
    24
 71
     2
 72
     6
 73
     3
 74
     0
 42
0.0000000001
 43
0.0000000001
 40
0.0
 40
0.0
 40
0.0
 40
12.3
 40
12.3
 40
12.3
 10
18.0
 20
-39.35
 30
13.5
 10
18.0
 20
-45.5
 30
13.5
 10
18.0
 20
-51.65
 30
13.5
  0
LINE
  5
179
330
168
100
AcDbEntity
  8
Livello 01
100
AcDbLine
 10
0.0
 20
-39.35000000000001
 30
22.50000000000034
 11
0.0
 21
71.02527784480445
 31
22.50000000000174
  0
SPLINE
  5
17A
330
168
100
AcDbEntity
  8
Livello 01
100
AcDbSpline
210
0.0
220
0.0
230
1.0
 70
    24
 71
     2
 72
     6
 73
     3
 74
     0
 42
0.0000000001
 43
0.0000000001
 40
0.0
 40
0.0
 40
0.0
 40
8.25
 40
8.25
 40
8.25
 10
-14.25
 20
-40.35
 30
13.5
 10
-10.125
 20
-40.35
 30
13.5
 10
-6.0
 20
-40.35
 30
13.5
  0
SPLINE
  5
17B
330
168
100
AcDbEntity
  8
Livello 01
100
AcDbSpline
210
0.0
220
0.0
230
1.0
 70
    24
 71
     2
 72
     6
 73
     3
 74
     0
 42
0.0000000001
 43
0.0000000001
 40
0.0
 40
0.0
 40
0.0
 40
1.0
 40
1.0
 40
1.0
 10
-6.0
 20
-40.35
 30
13.5
 10
-6.0
 20
-39.85
 30
13.5
 10
-6.0
 20
-39.35
 30
13.5
  0
SPLINE
  5
17C
330
168
100
AcDbEntity
  8
Livello 01
100
AcDbSpline
210
0.0
220
0.0
230
1.0
 70
    24
 71
     2
 72
     6
 73
     3
 74
     0
 42
0.0000000001
 43
0.0000000001
 40
0.0
 40
0.0
 40
0.0
 40
12.0
 40
12.0
 40
12.0
 10
-6.0
 20
-39.35
 30
13.5
 10
-12.0
 20
-39.35
 30
13.5
 10
-18.0
 20
-39.35
 30
13.5
  0
SPLINE
  5
17D
330
168
100
AcDbEntity
  8
Livello 01
100
AcDbSpline
210
0.0
220
0.0
230
1.0
 70
    24
 71
     2
 72
     6
 73
     3
 74
     0
 42
0.0000000001
 43
0.0000000001
 40
0.0
 40
0.0
 40
0.0
 40
12.0
 40
12.0
 40
12.0
 10
-18.0
 20
-51.65
 30
13.5
 10
-12.0
 20
-51.65
 30
13.5
 10
-6.0
 20
-51.65
 30
13.5
  0
SPLINE
  5
17E
330
168
100
AcDbEntity
  8
Livello 01
100
AcDbSpline
210
0.0
220
0.0
230
1.0
 70
    24
 71
     2
 72
     6
 73
     3
 74
     0
 42
0.0000000001
 43
0.0000000001
 40
0.0
 40
0.0
 40
0.0
 40
1.0
 40
1.0
 40
1.0
 10
-6.0
 20
-51.65
 30
13.5
 10
-6.0
 20
-51.15
 30
13.5
 10
-6.0
 20
-50.65
 30
13.5
  0
SPLINE
  5
17F
330
168
100
AcDbEntity
  8
Livello 01
100
AcDbSpline
210
0.0
220
0.0
230
1.0
 70
    24
 71
     2
 72
     6
 73
     3
 74
     0
 42
0.0000000001
 43
0.0000000001
 40
0.0
 40
0.0
 40
0.0
 40
8.25
 40
8.25
 40
8.25
 10
-6.0
 20
-50.65
 30
13.5
 10
-10.125
 20
-50.65
 30
13.5
 10
-14.25
 20
-50.65
 30
13.5
  0
SPLINE
  5
180
330
168
100
AcDbEntity
  8
Livello 01
100
AcDbSpline
210
0.0
220
0.0
230
1.0
 70
    24
 71
     2
 72
     6
 73
     3
 74
     0
 42
0.0000000001
 43
0.0000000001
 40
0.0
 40
0.0
 40
0.0
 40
4.5
 40
4.5
 40
4.5
 10
-17.15
 20
-47.75
 30
13.5
 10
-17.15
 20
-45.5
 30
13.5
 10
-17.15
 20
-43.25
 30
13.5
  0
SPLINE
  5
181
330
168
100
AcDbEntity
  8
Livello 01
100
AcDbSpline
210
0.0
220
0.0
230
1.0
 70
    24
 71
     2
 72
     6
 73
     3
 74
     0
 42
0.0000000001
 43
0.0000000001
 40
0.0
 40
0.0
 40
0.0
 40
6.828551350256099
 40
6.828551350256099
 40
6.828551350256099
 10
-6.0
 20
-51.65
 30
13.5
 10
-6.0
 20
-51.65
 30
16.91427567512805
 10
-6.0
 20
-51.65
 30
20.3285513502561
  0
SPLINE
  5
182
330
168
100
AcDbEntity
  8
Livello 01
100
AcDbSpline
210
0.0
220
0.0
230
1.0
 70
    24
 71
     2
 72
     6
 73
     3
 74
     0
 42
0.0000000001
 43
0.0000000001
 40
0.0
 40
0.0
 40
0.0
 40
2.350000000000001
 40
2.350000000000001
 40
2.350000000000001
 10
-6.0
 20
-51.65
 30
20.3285513502561
 10
-6.0
 20
-52.825
 30
20.3285513502561
 10
-6.0
 20
-54.0
 30
20.3285513502561
  0
SPLINE
  5
183
330
168
100
AcDbEntity
  8
Livello 01
100
AcDbSpline
210
0.0
220
0.0
230
1.0
 70
    24
 71
     2
 72
     6
 73
     3
 74
     0
 42
0.0000000001
 43
0.0000000001
 40
0.0
 40
0.0
 40
0.0
 40
24.02855135025611
 40
24.02855135025611
 40
24.02855135025611
 10
-6.0
 20
-54.0
 30
20.3285513502561
 10
-6.0
 20
-54.0
 30
8.314275675128044
 10
-6.0
 20
-54.0
 30
-3.70000000000001
  0
SPLINE
  5
184
330
168
100
AcDbEntity
  8
Livello 01
100
AcDbSpline
210
0.0
220
0.0
230
1.0
 70
    24
 71
     2
 72
     6
 73
     3
 74
     0
 42
0.0000000001
 43
0.0000000001
 40
0.0
 40
0.0
 40
0.0
 40
3.350000000000001
 40
3.350000000000001
 40
3.350000000000001
 10
-6.0
 20
-54.0
 30
-3.70000000000001
 10
-6.0
 20
-52.325
 30
-3.70000000000001
 10
-6.0
 20
-50.65
 30
-3.70000000000001
  0
SPLINE
  5
185
330
168
100
AcDbEntity
  8
Livello 01
100
AcDbSpline
210
0.0
220
0.0
230
1.0
 70
    24
 71
     2
 72
     6
 73
     3
 74
     0
 42
0.0000000001
 43
0.0000000001
 40
0.0
 40
0.0
 40
0.0
 40
17.20000000000001
 40
17.20000000000001
 40
17.20000000000001
 10
-6.0
 20
-50.65
 30
-3.70000000000001
 10
-6.0
 20
-50.65
 30
4.899999999999995
 10
-6.0
 20
-50.65
 30
13.5
  0
SPLINE
  5
186
330
168
100
AcDbEntity
  8
Livello 01
100
AcDbSpline
210
0.0
220
0.0
230
1.0
 70
    24
 71
     2
 72
     6
 73
     3
 74
     0
 42
0.0000000001
 43
0.0000000001
 40
0.0
 40
0.0
 40
0.0
 40
6.828551350256099
 40
6.828551350256099
 40
6.828551350256099
 10
6.0
 20
-51.65
 30
20.3285513502561
 10
6.0
 20
-51.65
 30
16.91427567512805
 10
6.0
 20
-51.65
 30
13.5
  0
SPLINE
  5
187
330
168
100
AcDbEntity
  8
Livello 01
100
AcDbSpline
210
0.0
220
0.0
230
1.0
 70
    24
 71
     2
 72
     6
 73
     3
 74
     0
 42
0.0000000001
 43
0.0000000001
 40
0.0
 40
0.0
 40
0.0
 40
1.0
 40
1.0
 40
1.0
 10
6.0
 20
-51.65
 30
13.5
 10
6.0
 20
-51.15
 30
13.5
 10
6.0
 20
-50.65
 30
13.5
  0
SPLINE
  5
188
330
168
100
AcDbEntity
  8
Livello 01
100
AcDbSpline
210
0.0
220
0.0
230
1.0
 70
    24
 71
     2
 72
     6
 73
     3
 74
     0
 42
0.0000000001
 43
0.0000000001
 40
0.0
 40
0.0
 40
0.0
 40
17.20000000000001
 40
17.20000000000001
 40
17.20000000000001
 10
6.0
 20
-50.65
 30
13.5
 10
6.0
 20
-50.65
 30
4.899999999999995
 10
6.0
 20
-50.65
 30
-3.70000000000001
  0
SPLINE
  5
189
330
168
100
AcDbEntity
  8
Livello 01
100
AcDbSpline
210
0.0
220
0.0
230
1.0
 70
    24
 71
     2
 72
     6
 73
     3
 74
     0
 42
0.0000000001
 43
0.0000000001
 40
0.0
 40
0.0
 40
0.0
 40
3.350000000000001
 40
3.350000000000001
 40
3.350000000000001
 10
6.0
 20
-50.65
 30
-3.70000000000001
 10
6.0
 20
-52.325
 30
-3.70000000000001
 10
6.0
 20
-54.0
 30
-3.70000000000001
  0
SPLINE
  5
18A
330
168
100
AcDbEntity
  8
Livello 01
100
AcDbSpline
210
0.0
220
0.0
230
1.0
 70
    24
 71
     2
 72
     6
 73
     3
 74
     0
 42
0.0000000001
 43
0.0000000001
 40
0.0
 40
0.0
 40
0.0
 40
24.02855135025611
 40
24.02855135025611
 40
24.02855135025611
 10
6.0
 20
-54.0
 30
-3.70000000000001
 10
6.0
 20
-54.0
 30
8.314275675128044
 10
6.0
 20
-54.0
 30
20.3285513502561
  0
SPLINE
  5
18B
330
168
100
AcDbEntity
  8
Livello 01
100
AcDbSpline
210
0.0
220
0.0
230
1.0
 70
    24
 71
     2
 72
     6
 73
     3
 74
     0
 42
0.0000000001
 43
0.0000000001
 40
0.0
 40
0.0
 40
0.0
 40
2.350000000000001
 40
2.350000000000001
 40
2.350000000000001
 10
6.0
 20
-54.0
 30
20.3285513502561
 10
6.0
 20
-52.825
 30
20.3285513502561
 10
6.0
 20
-51.65
 30
20.3285513502561
  0
ARC
  5
18C
330
168
100
AcDbEntity
  8
Livello 01
100
AcDbCircle
 10
0.0
 20
-3.699999999999999
 30
50.65
 40
6.0
210
0.0
220
-1.0
230
0.0
100
AcDbArc
 50
180.0000000000001
 51
359.9999999999999
  0
ARC
  5
18D
330
168
100
AcDbEntity
  8
Livello 01
100
AcDbCircle
 10
0.0
 20
-3.699999999999999
 30
-54.0
 40
6.0
210
0.0
220
1.0
230
0.0
100
AcDbArc
 50
180.0000000000001
 51
359.9999999999999
  0
SPLINE
  5
18E
330
168
100
AcDbEntity
  8
Livello 01
100
AcDbSpline
210
0.0
220
0.0
230
1.0
 70
    24
 71
     2
 72
     6
 73
     3
 74
     0
 42
0.0000000001
 43
0.0000000001
 40
0.0
 40
0.0
 40
0.0
 40
1.0
 40
1.0
 40
1.0
 10
6.0
 20
-39.35
 30
13.5
 10
6.0
 20
-39.85
 30
13.5
 10
6.0
 20
-40.35
 30
13.5
  0
SPLINE
  5
18F
330
168
100
AcDbEntity
  8
Livello 01
100
AcDbSpline
210
0.0
220
0.0
230
1.0
 70
    24
 71
     2
 72
     6
 73
     3
 74
     0
 42
0.0000000001
 43
0.0000000001
 40
0.0
 40
0.0
 40
0.0
 40
8.25
 40
8.25
 40
8.25
 10
6.0
 20
-40.35
 30
13.5
 10
10.125
 20
-40.35
 30
13.5
 10
14.25
 20
-40.35
 30
13.5
  0
SPLINE
  5
190
330
168
100
AcDbEntity
  8
Livello 01
100
AcDbSpline
210
0.0
220
0.0
230
1.0
 70
    24
 71
     2
 72
     6
 73
     3
 74
     0
 42
0.0000000001
 43
0.0000000001
 40
0.0
 40
0.0
 40
0.0
 40
4.5
 40
4.5
 40
4.5
 10
17.15
 20
-43.25
 30
13.5
 10
17.15
 20
-45.5
 30
13.5
 10
17.15
 20
-47.75
 30
13.5
  0
SPLINE
  5
191
330
168
100
AcDbEntity
  8
Livello 01
100
AcDbSpline
210
0.0
220
0.0
230
1.0
 70
    24
 71
     2
 72
     6
 73
     3
 74
     0
 42
0.0000000001
 43
0.0000000001
 40
0.0
 40
0.0
 40
0.0
 40
8.25
 40
8.25
 40
8.25
 10
14.25
 20
-50.65
 30
13.5
 10
10.125
 20
-50.65
 30
13.5
 10
6.0
 20
-50.65
 30
13.5
  0
SPLINE
  5
192
330
168
100
AcDbEntity
  8
Livello 01
100
AcDbSpline
210
0.0
220
0.0
230
1.0
 70
    24
 71
     2
 72
     6
 73
     3
 74
     0
 42
0.0000000001
 43
0.0000000001
 40
0.0
 40
0.0
 40
0.0
 40
12.0
 40
12.0
 40
12.0
 10
6.0
 20
-51.65
 30
13.5
 10
12.0
 20
-51.65
 30
13.5
 10
18.0
 20
-51.65
 30
13.5
  0
SPLINE
  5
193
330
168
100
AcDbEntity
  8
Livello 01
100
AcDbSpline
210
0.0
220
0.0
230
1.0
 70
    24
 71
     2
 72
     6
 73
     3
 74
     0
 42
0.0000000001
 43
0.0000000001
 40
0.0
 40
0.0
 40
0.0
 40
12.0
 40
12.0
 40
12.0
 10
18.0
 20
-39.35
 30
13.5
 10
12.0
 20
-39.35
 30
13.5
 10
6.0
 20
-39.35
 30
13.5
  0
ARC
  5
194
330
168
100
AcDbEntity
  8
Livello 01
100
AcDbCircle
 10
-7.000000000000013
 20
20.3285513502561
 30
51.65
 40
1.000000000000013
210
0.0
220
-1.0
230
0.0
100
AcDbArc
 50
0.0
 51
109.0008023629129
  0
ARC
  5
195
330
168
100
AcDbEntity
  8
Livello 01
100
AcDbCircle
 10
7.000000000000013
 20
20.3285513502561
 30
-54.0
 40
1.000000000000013
210
0.0
220
1.0
230
0.0
100
AcDbArc
 50
70.99919763708711
 51
180.0
  0
ARC
  5
196
330
168
100
AcDbEntity
  8
Livello 01
100
AcDbCircle
 10
7.000000000000013
 20
20.3285513502561
 30
51.65
 40
1.000000000000013
210
0.0
220
-1.0
230
0.0
100
AcDbArc
 50
70.99919763708711
 51
180.0
  0
ARC
  5
197
330
168
100
AcDbEntity
  8
Livello 01
100
AcDbCircle
 10
-7.000000000000013
 20
20.3285513502561
 30
-54.0
 40
1.000000000000013
210
0.0
220
1.0
230
0.0
100
AcDbArc
 50
0.0
 51
109.0008023629129
  0
SPLINE
  5
198
330
168
100
AcDbEntity
  8
Livello 01
100
AcDbSpline
210
0.0
220
0.0
230
1.0
 70
    24
 71
     2
 72
     6
 73
     3
 74
     0
 42
0.0000000001
 43
0.0000000001
 40
0.0
 40
0.0
 40
0.0
 40
17.20000000000001
 40
17.20000000000001
 40
17.20000000000001
 10
-6.0
 20
-39.35
 30
13.5
 10
-6.0
 20
-39.35
 30
4.899999999999995
 10
-6.0
 20
-39.35
 30
-3.70000000000001
  0
SPLINE
  5
199
330
168
100
AcDbEntity
  8
Livello 01
100
AcDbSpline
210
0.0
220
0.0
230
1.0
 70
    24
 71
     2
 72
     6
 73
     3
 74
     0
 42
0.0000000001
 43
0.0000000001
 40
0.0
 40
0.0
 40
0.0
 40
17.2
 40
17.2
 40
17.2
 10
6.0
 20
-39.35
 30
-3.7
 10
6.0
 20
-39.35
 30
4.9
 10
6.0
 20
-39.35
 30
13.5
  0
SPLINE
  5
19A
330
168
100
AcDbEntity
  8
Livello 01
100
AcDbSpline
210
0.0
220
0.0
230
1.0
 70
    24
 71
     2
 72
     6
 73
     3
 74
     0
 42
0.0000000001
 43
0.0000000001
 40
0.0
 40
0.0
 40
0.0
 40
28.0645974884306
 40
28.0645974884306
 40
28.0645974884306
 10
17.15
 20
-47.75
 30
-14.5645974884306
 10
17.15
 20
-47.75
 30
-0.5322987442153
 10
17.15
 20
-47.75
 30
13.5
  0
SPLINE
  5
19B
330
168
100
AcDbEntity
  8
Livello 01
100
AcDbSpline
210
0.0
220
0.0
230
1.0
 70
    24
 71
     2
 72
     6
 73
     3
 74
     0
 42
0.0000000001
 43
0.0000000001
 40
0.0
 40
0.0
 40
0.0
 40
28.0645974884306
 40
28.0645974884306
 40
28.0645974884306
 10
17.15
 20
-43.25
 30
13.5
 10
17.15
 20
-43.25
 30
-0.5322987442153
 10
17.15
 20
-43.25
 30
-14.5645974884306
  0
SPLINE
  5
19C
330
168
100
AcDbEntity
  8
Livello 01
100
AcDbSpline
210
0.0
220
0.0
230
1.0
 70
    24
 71
     2
 72
     6
 73
     3
 74
     0
 42
0.0000000001
 43
0.0000000001
 40
0.0
 40
0.0
 40
0.0
 40
17.2
 40
17.2
 40
17.2
 10
6.0
 20
-40.35
 30
13.5
 10
6.0
 20
-40.35
 30
4.9
 10
6.0
 20
-40.35
 30
-3.7
  0
SPLINE
  5
19D
330
168
100
AcDbEntity
  8
Livello 01
100
AcDbSpline
210
0.0
220
0.0
230
1.0
 70
    24
 71
     2
 72
     6
 73
     3
 74
     0
 42
0.0000000001
 43
0.0000000001
 40
0.0
 40
0.0
 40
0.0
 40
17.20000000000001
 40
17.20000000000001
 40
17.20000000000001
 10
-6.0
 20
-40.35
 30
-3.70000000000001
 10
-6.0
 20
-40.35
 30
4.899999999999995
 10
-6.0
 20
-40.35
 30
13.5
  0
SPLINE
  5
19E
330
168
100
AcDbEntity
  8
Livello 01
100
AcDbSpline
210
0.0
220
0.0
230
1.0
 70
    24
 71
     2
 72
     6
 73
     3
 74
     0
 42
0.0000000001
 43
0.0000000001
 40
0.0
 40
0.0
 40
0.0
 40
28.0645974884306
 40
28.0645974884306
 40
28.0645974884306
 10
-17.15
 20
-47.75
 30
13.5
 10
-17.15
 20
-47.75
 30
-0.5322987442153
 10
-17.15
 20
-47.75
 30
-14.5645974884306
  0
SPLINE
  5
19F
330
168
100
AcDbEntity
  8
Livello 01
100
AcDbSpline
210
0.0
220
0.0
230
1.0
 70
    24
 71
     2
 72
     6
 73
     3
 74
     0
 42
0.0000000001
 43
0.0000000001
 40
0.0
 40
0.0
 40
0.0
 40
28.0645974884306
 40
28.0645974884306
 40
28.0645974884306
 10
-17.15
 20
-43.25
 30
-14.5645974884306
 10
-17.15
 20
-43.25
 30
-0.5322987442153
 10
-17.15
 20
-43.25
 30
13.5
  0
ARC
  5
1A0
330
168
100
AcDbEntity
  8
Livello 01
100
AcDbCircle
 10
14.24999999999999
 20
-43.25
 30
-13.4999999999999
 40
2.900000000000006
210
0.0
220
0.0
230
-1.0
100
AcDbArc
 50
0.0
 51
89.99999999999986
  0
SPLINE
  5
1A1
330
168
100
AcDbEntity
  8
Livello 01
100
AcDbSpline
 70
     0
 71
     3
 72
    11
 73
     7
 74
     0
 42
0.0000000001
 43
0.0000000001
 40
-5.565837285466884
 40
-5.565837285466884
 40
-5.565837285466884
 40
-5.565837285466884
 40
-4.17437796410016
 40
-2.782918642733437
 40
-1.391459321366723
 40
0.0
 40
0.0
 40
0.0
 40
0.0
 10
-14.25
 20
-40.35
 30
-17.4122801493658
 10
-14.605477280733
 20
-40.35
 30
-17.1213618315469
 10
-15.2893443170148
 20
-40.478511502706
 30
-16.524707150599
 10
-16.1912362242903
 20
-41.0090608034262
 30
-15.6389965303286
 10
-16.9173364858082
 20
-41.9023631928777
 30
-14.8421676784544
 10
-17.15
 20
-42.7868307364751
 30
-14.5645974884306
 10
-17.15
 20
-43.25
 30
-14.5645974884306
  0
SPLINE
  5
1A2
330
168
100
AcDbEntity
  8
Livello 01
100
AcDbSpline
210
0.0
220
0.0
230
1.0
 70
    24
 71
     2
 72
     6
 73
     3
 74
     0
 42
0.0000000001
 43
0.0000000001
 40
-30.9122801493658
 40
-30.9122801493658
 40
-30.9122801493658
 40
0.0
 40
0.0
 40
0.0
 10
-14.25
 20
-40.35
 30
13.5
 10
-14.25
 20
-40.35
 30
-1.956140074682899
 10
-14.25
 20
-40.35
 30
-17.4122801493658
  0
ARC
  5
1A3
330
168
100
AcDbEntity
  8
Livello 01
100
AcDbCircle
 10
-14.25
 20
-43.25
 30
-13.4999999999999
 40
2.900000000000002
210
0.0
220
0.0
230
-1.0
100
AcDbArc
 50
90.00000000000009
 51
180.0
  0
SPLINE
  5
1A4
330
168
100
AcDbEntity
  8
Livello 01
100
AcDbSpline
210
0.0
220
0.0
230
1.0
 70
    24
 71
     2
 72
     6
 73
     3
 74
     0
 42
0.0000000001
 43
0.0000000001
 40
-30.9122801493658
 40
-30.9122801493658
 40
-30.9122801493658
 40
0.0
 40
0.0
 40
0.0
 10
14.25
 20
-40.35
 30
-17.4122801493658
 10
14.25
 20
-40.35
 30
-1.956140074682899
 10
14.25
 20
-40.35
 30
13.5
  0
SPLINE
  5
1A5
330
168
100
AcDbEntity
  8
Livello 01
100
AcDbSpline
 70
     0
 71
     3
 72
    11
 73
     7
 74
     0
 42
0.0000000001
 43
0.0000000001
 40
-5.565722664440186
 40
-5.565722664440186
 40
-5.565722664440186
 40
-5.565722664440186
 40
-4.174291998330121
 40
-2.782861332220055
 40
-1.39143066611
 40
0.0
 40
0.0
 40
0.0
 40
0.0
 10
17.15
 20
-43.25
 30
-14.5645974884306
 10
17.15
 20
-42.7868340828345
 30
-14.5645974884306
 10
16.91907092975669
 20
-41.9068740071179
 30
-14.84014896583579
 10
16.19394131058818
 20
-41.0112146340792
 30
-15.63613798759417
 10
15.29285104902358
 20
-40.4794862467711
 30
-16.52157431337865
 10
14.60536714704268
 20
-40.35
 30
-17.12145196363032
 10
14.25
 20
-40.35
 30
-17.4122801493658
  0
ARC
  5
1A6
330
168
100
AcDbEntity
  8
Livello 01
100
AcDbCircle
 10
-14.24999999999999
 20
-47.75
 30
-13.4999999999999
 40
2.900000000000006
210
0.0
220
0.0
230
-1.0
100
AcDbArc
 50
180.0
 51
269.9999999999998
  0
SPLINE
  5
1A7
330
168
100
AcDbEntity
  8
Livello 01
100
AcDbSpline
 70
     0
 71
     3
 72
    11
 73
     7
 74
     0
 42
0.0000000001
 43
0.0000000001
 40
-5.565837285466879
 40
-5.565837285466879
 40
-5.565837285466879
 40
-5.565837285466879
 40
-4.174377964100157
 40
-2.782918642733434
 40
-1.391459321366722
 40
0.0
 40
0.0
 40
0.0
 40
0.0
 10
14.25
 20
-50.65
 30
-17.4122801493658
 10
14.605477280733
 20
-50.65
 30
-17.121361831547
 10
15.2893443170148
 20
-50.521488497294
 30
-16.524707150599
 10
16.1912362242903
 20
-49.9909391965738
 30
-15.6389965303286
 10
16.9173364858082
 20
-49.0976368071223
 30
-14.8421676784544
 10
17.15
 20
-48.2131692635248
 30
-14.5645974884306
 10
17.15
 20
-47.75
 30
-14.5645974884306
  0
SPLINE
  5
1A8
330
168
100
AcDbEntity
  8
Livello 01
100
AcDbSpline
210
0.0
220
0.0
230
1.0
 70
    24
 71
     2
 72
     6
 73
     3
 74
     0
 42
0.0000000001
 43
0.0000000001
 40
-30.9122801493658
 40
-30.9122801493658
 40
-30.9122801493658
 40
0.0
 40
0.0
 40
0.0
 10
14.25
 20
-50.65
 30
13.5
 10
14.25
 20
-50.65
 30
-1.956140074682899
 10
14.25
 20
-50.65
 30
-17.4122801493658
  0
ARC
  5
1A9
330
168
100
AcDbEntity
  8
Livello 01
100
AcDbCircle
 10
14.25
 20
-47.75
 30
-13.4999999999999
 40
2.900000000000002
210
0.0
220
0.0
230
-1.0
100
AcDbArc
 50
270.0000000000001
 51
0.0
  0
SPLINE
  5
1AA
330
168
100
AcDbEntity
  8
Livello 01
100
AcDbSpline
210
0.0
220
0.0
230
1.0
 70
    24
 71
     2
 72
     6
 73
     3
 74
     0
 42
0.0000000001
 43
0.0000000001
 40
-30.9122801493658
 40
-30.9122801493658
 40
-30.9122801493658
 40
0.0
 40
0.0
 40
0.0
 10
-14.25
 20
-50.65
 30
-17.4122801493658
 10
-14.25
 20
-50.65
 30
-1.956140074682899
 10
-14.25
 20
-50.65
 30
13.5
  0
SPLINE
  5
1AB
330
168
100
AcDbEntity
  8
Livello 01
100
AcDbSpline
 70
     0
 71
     3
 72
    11
 73
     7
 74
     0
 42
0.0000000001
 43
0.0000000001
 40
-5.565722664440193
 40
-5.565722664440193
 40
-5.565722664440193
 40
-5.565722664440193
 40
-4.174291998330148
 40
-2.782861332220091
 40
-1.391430666110046
 40
0.0
 40
0.0
 40
0.0
 40
0.0
 10
-17.15
 20
-47.75
 30
-14.5645974884306
 10
-17.15
 20
-48.2131659171655
 30
-14.5645974884306
 10
-16.9190709297567
 20
-49.0931259928821
 30
-14.8401489658358
 10
-16.1939413105882
 20
-49.9887853659208
 30
-15.6361379875942
 10
-15.2928510490236
 20
-50.5205137532289
 30
-16.5215743133787
 10
-14.6053671470427
 20
-50.65
 30
-17.1214519636304
 10
-14.25
 20
-50.65
 30
-17.4122801493658
  0
SPLINE
  5
1AC
330
168
100
AcDbEntity
  8
Livello 01
100
AcDbSpline
210
0.0
220
0.0
230
1.0
 70
    24
 71
     2
 72
     6
 73
     3
 74
     0
 42
0.0000000001
 43
0.0000000001
 40
0.0
 40
0.0
 40
0.0
 40
1.0
 40
1.0
 40
1.0
 10
6.0
 20
-39.35
 30
-3.7
 10
6.0
 20
-39.85
 30
-3.7
 10
6.0
 20
-40.35
 30
-3.7
  0
SPLINE
  5
1AD
330
168
100
AcDbEntity
  8
Livello 01
100
AcDbSpline
210
0.0
220
0.0
230
1.0
 70
    24
 71
     2
 72
     6
 73
     3
 74
     0
 42
0.0000000001
 43
0.0000000001
 40
0.0
 40
0.0
 40
0.0
 40
1.0
 40
1.0
 40
1.0
 10
-6.0
 20
-40.35
 30
-3.70000000000001
 10
-6.0
 20
-39.85
 30
-3.70000000000001
 10
-6.0
 20
-39.35
 30
-3.70000000000001
  0
ARC
  5
1AE
330
168
100
AcDbEntity
  8
Livello 01
100
AcDbCircle
 10
0.0
 20
-3.699999999999999
 30
39.35
 40
6.0
210
0.0
220
-1.0
230
0.0
100
AcDbArc
 50
180.0000000000001
 51
0.0
  0
ARC
  5
1AF
330
168
100
AcDbEntity
  8
Livello 01
100
AcDbCircle
 10
0.0
 20
-3.699999999999999
 30
-40.35
 40
6.0
210
0.0
220
1.0
230
0.0
100
AcDbArc
 50
180.0
 51
359.9999999999999
  0
CIRCLE
  5
1B0
330
168
100
AcDbEntity
  8
Livello 01
100
AcDbCircle
 10
-0.0000000000001422
 20
0.0
 30
-0.350000000000003
 40
4.5
210
0.0
220
1.0
230
0.0
  0
CIRCLE
  5
1B1
330
168
100
AcDbEntity
  8
Livello 01
100
AcDbCircle
 10
-0.0000000000001422
 20
0.0
 30
-39.35
 40
4.5
210
0.0
220
1.0
230
0.0
  0
LINE
  5
1B2
330
168
100
AcDbEntity
  8
Livello 01
100
AcDbLine
 10
0.0000000000001422
 20
-0.3500000000000059
 30
-4.5
 11
0.0000000000001422
 21
-39.34999999999999
 31
-4.5
  0
SPLINE
  5
1B3
330
168
100
AcDbEntity
  8
Livello 01
100
AcDbSpline
210
0.0
220
0.5000000000000018
230
-0.8660254037844378
 70
    15
 71
     2
 72
    12
 73
     9
 74
     0
 42
0.0000000001
 43
0.0000000001
 40
-269.9999999999992
 40
-269.9999999999992
 40
-269.9999999999992
 40
-202.4999999999994
 40
-202.4999999999994
 40
-134.9999999999996
 40
-134.9999999999996
 40
-67.4999999999998
 40
-67.4999999999998
 40
0.0
 40
0.0
 40
0.0
 10
0.0
 20
71.02527784480452
 30
22.49999999999998
 41
1.0
 10
-22.5
 20
71.02527784480452
 30
22.49999999999998
 41
0.7071067811865475
 10
-22.5
 20
32.054134674505
 30
0.0
 41
1.0
 10
-22.5
 20
-6.917008495794513
 30
-22.49999999999998
 41
0.7071067811865475
 10
0.0
 20
-6.917008495794512
 30
-22.49999999999998
 41
1.0
 10
22.5
 20
-6.917008495794513
 30
-22.49999999999998
 41
0.7071067811865475
 10
22.5
 20
32.054134674505
 30
0.0
 41
1.0
 10
22.5
 20
71.02527784480452
 30
22.49999999999998
 41
0.7071067811865475
 10
0.0
 20
71.02527784480452
 30
22.49999999999998
 41
1.0
  0
CIRCLE
  5
1B4
330
168
100
AcDbEntity
  8
Livello 01
100
AcDbCircle
 10
0.0
 20
12.7596949244489
 30
13.97706733725255
 40
16.0
210
0.0
220
0.5000000000000018
230
-0.8660254037844377
  0
CIRCLE
  5
1B5
330
168
100
AcDbEntity
  8
Livello 01
100
AcDbCircle
 10
0.0
 20
12.7596949244489
 30
-16.02706733725255
 40
16.0
210
0.0
220
-0.5000000000000018
230
0.8660254037844377
  0
LINE
  5
1B6
330
168
100
AcDbEntity
  8
Livello 01
100
AcDbLine
 10
-16.0
 20
18.0387536177384
 30
-5.724647922241945
 11
-16.0
 21
19.0637536177384
 31
-7.500000000000037
  0
CIRCLE
  5
1B7
330
168
100
AcDbEntity
  8
Livello 01
100
AcDbCircle
 10
0.0
 20
12.7596949244489
 30
13.97706733725255
 40
19.0
210
0.0
220
0.5000000000000018
230
-0.8660254037844377
  0
CIRCLE
  5
1B8
330
168
100
AcDbEntity
  8
Livello 01
100
AcDbCircle
 10
0.0
 20
12.7596949244489
 30
-16.02706733725255
 40
19.0
210
0.0
220
-0.5000000000000018
230
0.8660254037844377
  0
LINE
  5
1B9
330
168
100
AcDbEntity
  8
Livello 01
100
AcDbLine
 10
-19.0
 20
18.0387536177384
 30
-5.724647922241935
 11
-19.0
 21
19.06375361773841
 31
-7.500000000000036
  0
CIRCLE
  5
1BA
330
168
100
AcDbEntity
  8
Livello 01
100
AcDbCircle
 10
0.0
 20
12.7596949244489
 30
14.52706733725255
 40
13.5
210
0.0
220
0.5000000000000018
230
-0.8660254037844377
  0
CIRCLE
  5
1BB
330
168
100
AcDbEntity
  8
Livello 01
100
AcDbCircle
 10
0.0
 20
12.7596949244489
 30
-16.02706733725254
 40
13.5
210
0.0
220
-0.5000000000000018
230
0.8660254037844377
  0
LINE
  5
1BC
330
168
100
AcDbEntity
  8
Livello 01
100
AcDbLine
 10
-13.5
 20
18.3137536177384
 30
-6.200961894323382
 11
-13.5
 21
19.0637536177384
 31
-7.500000000000034
  0
ARC
  5
1BD
330
168
100
AcDbEntity
  8
Livello 01
100
AcDbCircle
 10
-0.0000000000000018
 20
12.75969492444897
 30
13.88256041674303
 40
8.9
210
-4.919494972069731E-17
220
0.5000000000000018
230
-0.8660254037844377
100
AcDbArc
 50
359.9999999999995
 51
89.99999999999999
  0
ARC
  5
1BE
330
168
100
AcDbEntity
  8
Livello 01
100
AcDbCircle
 10
0.0
 20
12.7596949244489
 30
-14.52706733725255
 40
9.2005385127675
210
0.0
220
-0.5000000000000019
230
0.8660254037844376
100
AcDbArc
 50
180.0
 51
270.0
  0
LINE
  5
1BF
330
168
100
AcDbEntity
  8
Livello 01
100
AcDbLine
 10
-8.90000000000002
 20
17.99150015748364
 30
-5.642802528247262
 11
-9.200538512767505
 21
18.3137536177384
 31
-6.200961894323385
  0
ARC
  5
1C0
330
168
100
AcDbEntity
  8
Livello 01
100
AcDbCircle
 10
-0.0000000000000018
 20
12.75969492444897
 30
13.88256041674303
 40
8.9
210
-4.919494972069731E-17
220
0.5000000000000018
230
-0.8660254037844377
100
AcDbArc
 50
89.99999999999999
 51
359.9999999999995
  0
ARC
  5
1C1
330
168
100
AcDbEntity
  8
Livello 01
100
AcDbCircle
 10
0.0
 20
12.7596949244489
 30
-14.52706733725255
 40
9.2005385127675
210
0.0
220
-0.5000000000000019
230
0.8660254037844376
100
AcDbArc
 50
270.0
 51
180.0
  0
CIRCLE
  5
1C2
330
168
100
AcDbEntity
  8
Livello 01
100
AcDbCircle
 10
0.0
 20
-10.32706733725261
 30
-9.11299467869343
 40
2.067
210
0.0
220
0.8660254037844374
230
0.5000000000000022
  0
LINE
  5
1C3
330
168
100
AcDbEntity
  8
Livello 01
100
AcDbLine
 10
-2.067000000001673
 20
7.740523224690261
 30
-7.45567704676138
 11
-2.067000000007751
 21
-2.72855122767437
 31
-13.50000000000037
  0
CIRCLE
  5
1C4
330
168
100
AcDbEntity
  8
Livello 01
100
AcDbCircle
 10
-0.0000000000000002
 20
-10.3270673372526
 30
-9.11299467869343
 40
2.6
210
5.302701060230063E-17
220
0.8660254037844374
230
0.5000000000000024
  0
SPLINE
  5
1C5
330
168
100
AcDbEntity
  8
Livello 01
100
AcDbSpline
 70
     3
 71
     3
 72
    30
 73
    26
 74
     0
 42
0.0000000001
 43
0.0000000001
 40
-25.44490905023006
 40
-25.44490905023006
 40
-25.44490905023006
 40
-25.44490905023006
 40
-24.64975564241037
 40
-23.85460223459069
 40
-22.26429541895131
 40
-20.67398860331193
 40
-19.08368178767255
 40
-17.49337497203318
 40
-15.9030681563938
 40
-15.10791474857412
 40
-14.31276134075438
 40
-13.51760793293473
 40
-12.72245452511509
 40
-11.92730111729535
 40
-11.13214770947571
 40
-10.33699430165596
 40
-9.54184089383632
 40
-7.951534078196935
 40
-6.361227262557546
 40
-4.77092044691816
 40
-3.180613631278775
 40
-2.385460223459132
 40
-1.590306815639389
 40
-0.7951534078197434
 40
0.0
 40
0.0
 40
0.0
 40
0.0
 10
-0.000000000000001
 20
-13.11700849579445
 30
-22.49999999999998
 10
-0.2634118306684003
 20
-13.1169307712818
 30
-22.5000069860547
 10
-0.789809805255322
 20
-13.2716189188248
 30
-22.4898858362921
 10
-1.59533395736816
 20
-13.9782576245838
 30
-22.4481400705353
 10
-2.20286817843708
 20
-15.1694707903094
 30
-22.3935382940996
 10
-2.55380522036213
 20
-16.7022780608651
 30
-22.3548713665934
 10
-2.6358422960408
 20
-18.2824454749023
 30
-22.3450142049465
 10
-2.48870447338685
 20
-19.8336553756864
 30
-22.3623513520325
 10
-2.16897761087566
 20
-21.1087813035758
 30
-22.3965021592036
 10
-1.75659871845042
 20
-22.0743474178204
 30
-22.4322971601838
 10
-1.34164616038758
 20
-22.7493051465486
 30
-22.4615462486373
 10
-0.783385142328263
 20
-23.3249240165044
 30
-22.4897862711764
 10
-0.0004865572520807
 20
-23.6128601376574
 30
-22.5050969675909
 10
0.782093122054857
 20
-23.325685668167
 30
-22.4898258196218
 10
1.33980038375012
 20
-22.7514964487356
 30
-22.4616527570147
 10
1.7546125193997
 20
-22.0784282649883
 30
-22.4324566324575
 10
2.16858739598087
 20
-21.109987583866
 30
-22.3965494434231
 10
2.48771384349594
 20
-19.8418011322424
 30
-22.3624505106102
 10
2.63634934821392
 20
-18.2716473980709
 30
-22.344988590908
 10
2.55334926926758
 20
-16.7095990995842
 30
-22.3548070613783
 10
2.26521465091457
 20
-15.43110436557
 30
-22.3870005569172
 10
1.8376253089679
 20
-14.458953266021
 30
-22.4258942370758
 10
1.39552773406736
 20
-13.8022476194535
 30
-22.4585903903599
 10
0.790661178755075
 20
-13.2720852659007
 30
-22.4898439199638
 10
0.2634118306683875
 20
-13.1170862203071
 30
-22.49999301394526
 10
-0.0000000000000342
 20
-13.11700849579445
 30
-22.49999999999998
  0
LINE
  5
1C6
330
168
100
AcDbEntity
  8
Livello 01
100
AcDbLine
 10
-0.0000000000000007
 20
-13.11700849579445
 30
-22.49999999999998
 11
0.0
 21
-1.428551227674584
 31
-15.7516660498395
  0
SPLINE
  5
1C7
330
168
100
AcDbEntity
  8
Livello 01
100
AcDbSpline
 70
     0
 71
     3
 72
    10
 73
     6
 74
     0
 42
0.0000000001
 43
0.0000000001
 40
2.854929311282434
 40
2.854929311282434
 40
2.854929311282434
 40
2.854929311282434
 40
2.855095246080276
 40
4.282642869120409
 40
5.710190492160543
 40
5.710190492160543
 40
5.710190492160543
 40
5.710190492160543
 10
-2.067000013768717
 20
7.740523224690258
 30
-7.455677046761375
 10
-2.067000009262871
 20
7.740549568101597
 30
-7.455722672768115
 10
-2.066943189472619
 20
7.967206269207311
 30
-7.848293846242756
 10
-1.756212361966662
 20
8.357049417532766
 30
-8.669658176044985
 10
-0.9609935599195767
 20
8.527890621273878
 30
-9.178189082587096
 10
-0.522004789250223
 20
8.56530674850261
 30
-9.28888913402409
  0
ARC
  5
1C8
330
168
100
AcDbEntity
  8
Livello 01
100
AcDbCircle
 10
-0.0000000000277232
 20
12.75969492467466
 30
-12.32706733720648
 40
10.00000000001896
210
-7.599791802240723E-13
220
-0.4999999999854716
230
0.8660254037928267
100
AcDbArc
 50
272.9922270966163
 51
267.0077729035506
  0
SPLINE
  5
1C9
330
168
100
AcDbEntity
  8
Livello 01
100
AcDbSpline
 70
     0
 71
     3
 72
    11
 73
     7
 74
     0
 42
0.0000000001
 43
0.0000000001
 40
0.0
 40
0.0
 40
0.0
 40
0.0
 40
1.427411452503192
 40
2.854822905006377
 40
4.28223435750958
 40
5.709645810012784
 40
5.709645810012784
 40
5.709645810012784
 40
5.709645810012784
 10
0.522004789249898
 20
8.56530674850234
 30
-9.28888913402333
 10
0.9655654517794691
 20
8.52750094732576
 30
-9.17703618598041
 10
1.753521377944537
 20
8.35753819663713
 30
-8.67088937468743
 10
2.223241581943118
 20
7.77199732141163
 30
-7.4370279874233
 10
1.755512293035609
 20
6.9975239319972
 30
-6.31490861508561
 10
0.9625530268647149
 20
6.64274184891322
 30
-5.91285259691534
 10
0.522004789251175
 20
6.56530674850251
 30
-5.82478751888576
  0
SPLINE
  5
1CA
330
168
100
AcDbEntity
  8
Livello 01
100
AcDbSpline
 70
     0
 71
     3
 72
     9
 73
     5
 74
     0
 42
0.0000000001
 43
0.0000000001
 40
0.0
 40
0.0
 40
0.0
 40
0.0
 40
1.427547623040143
 40
2.854929311282434
 40
2.854929311282434
 40
2.854929311282434
 40
2.854929311282434
 10
-0.522004789251174
 20
6.56530674850251
 30
-5.82478751888576
 10
-0.9593852178147103
 20
6.642185043571761
 30
-5.912219355587024
 10
-1.756615201683672
 20
6.997268750405348
 30
-6.314468868296354
 10
-2.067038773341777
 20
7.513915524310015
 30
-7.063199233934379
 10
-2.067000013768717
 20
7.740523224690258
 30
-7.455677046761374
  0
CIRCLE
  5
1CB
330
168
100
AcDbEntity
  8
Livello 01
100
AcDbCircle
 10
0.0
 20
12.75969492444896
 30
10.47293266274746
 40
7.9
210
0.0
220
-0.5000000000000022
230
0.8660254037844374
  0
LINE
  5
1CC
330
168
100
AcDbEntity
  8
Livello 01
100
AcDbLine
 10
0.0
 20
18.40477688545712
 30
9.441381181316837
 11
0.0
 21
12.65535430763542
 31
19.3996732002876
  0
ARC
  5
1CD
330
168
100
AcDbEntity
  8
Livello 01
100
AcDbCircle
 10
0.0
 20
12.75969492444896
 30
1.025912492895894
 40
7.9
210
0.0
220
0.5000000000000019
230
-0.8660254037844376
100
AcDbArc
 50
270.0
 51
90.0
  0
CIRCLE
  5
1CE
330
168
100
AcDbEntity
  8
Livello 01
100
AcDbCircle
 10
0.0
 20
12.75969492444892
 30
-2.527067337252561
 40
8.6
210
0.0
220
-0.5000000000000018
230
0.8660254037844377
  0
LINE
  5
1CF
330
168
100
AcDbEntity
  8
Livello 01
100
AcDbLine
 10
0.0
 20
4.721575505662994
 30
1.54138118131682
 11
0.0
 21
4.865935145192235
 31
-0.1086570489101444
  0
ARC
  5
1D0
330
168
100
AcDbEntity
  8
Livello 01
100
AcDbCircle
 10
0.0
 20
12.75969492444896
 30
1.025912492895894
 40
7.9
210
0.0
220
0.5000000000000019
230
-0.8660254037844376
100
AcDbArc
 50
90.0
 51
270.0
  0
ARC
  5
1D1
330
168
100
AcDbEntity
  8
Livello 01
100
AcDbCircle
 10
0.0
 20
12.75969492444891
 30
-7.827067337252556
 40
8.9
210
0.0
220
-0.5000000000000017
230
0.8660254037844377
100
AcDbArc
 50
90.0
 51
270.0
  0
CIRCLE
  5
1D2
330
168
100
AcDbEntity
  8
Livello 01
100
AcDbCircle
 10
0.0
 20
12.75969492444892
 30
-2.527067337252561
 40
8.9
210
0.0
220
-0.5000000000000018
230
0.8660254037844376
  0
LINE
  5
1D3
330
168
100
AcDbEntity
  8
Livello 01
100
AcDbLine
 10
0.0
 20
22.67137971141988
 30
4.051408311032358
 11
0.0
 21
20.02137971141987
 31
8.641342951089879
  0
ARC
  5
1D4
330
168
100
AcDbEntity
  8
Livello 01
100
AcDbCircle
 10
0.0
 20
12.75969492444891
 30
-7.827067337252556
 40
8.9
210
0.0
220
-0.5000000000000017
230
0.8660254037844377
100
AcDbArc
 50
270.0
 51
89.99999999999999
  0
SPLINE
  5
1D5
330
168
100
AcDbEntity
  8
Livello 01
100
AcDbSpline
210
-5.680781054564471E-13
220
0.3632846447618939
230
0.9316781992084094
 70
     8
 71
     3
 72
     8
 73
     4
 74
     0
 42
0.0000000001
 43
0.0000000001
 40
-0.5404385421079749
 40
-0.5404385421079749
 40
-0.5404385421079749
 40
-0.5404385421079749
 40
0.0
 40
0.0
 40
0.0
 40
0.0
 10
-0.0000000000000024
 20
8.64447848604687
 30
-9.319760175734725
 10
-0.1762988133091795
 20
8.644478525574485
 30
-9.31976019114764
 10
-0.3526007405416787
 20
8.618088956124586
 30
-9.30947023763035
 10
-0.522004789250223
 20
8.56530674850261
 30
-9.28888913402409
  0
SPLINE
  5
1D6
330
168
100
AcDbEntity
  8
Livello 01
100
AcDbSpline
210
-5.785448763111163E-13
220
0.3632846447620222
230
0.9316781992083594
 70
     8
 71
     3
 72
     8
 73
     4
 74
     0
 42
0.0000000001
 43
0.0000000001
 40
-1.080896953993941
 40
-1.080896953993941
 40
-1.080896953993941
 40
-1.080896953993941
 40
-0.5404385421079749
 40
-0.5404385421079749
 40
-0.5404385421079749
 40
-0.5404385421079749
 10
0.522004789249898
 20
8.56530674850234
 30
-9.28888913402333
 10
0.352607476079887
 20
8.618086857493395
 30
-9.309469419321093
 10
0.176305295116092
 20
8.644478446517802
 30
-9.319760160321241
 10
-0.0000000000000024
 20
8.64447848604687
 30
-9.319760175734725
  0
CIRCLE
  5
1D7
330
168
100
AcDbEntity
  8
Livello 01
100
AcDbCircle
 10
0.0
 20
12.7596949244489
 30
-12.82706733725255
 40
9.5
210
0.0
220
-0.5000000000000018
230
0.8660254037844377
  0
LINE
  5
1D8
330
168
100
AcDbEntity
  8
Livello 01
100
AcDbLine
 10
0.0
 20
9.23651228178624
 30
-9.478718707889852
 11
0.0
 21
8.644397597373159
 31
-9.32006205637476
  0
ARC
  5
1D9
330
168
100
AcDbEntity
  8
Livello 01
100
AcDbCircle
 10
0.0
 20
12.75969492444891
 30
7.827067337252554
 40
9.5
210
1.232595164407831E-32
220
0.5000000000000018
230
-0.8660254037844377
100
AcDbArc
 50
90.0
 51
270.0
  0
SPLINE
  5
1DA
330
168
100
AcDbEntity
  8
Livello 01
100
AcDbSpline
210
0.0
220
-0.988499311047605
230
0.1512253684353596
 70
     8
 71
     3
 72
     8
 73
     4
 74
     0
 42
0.0000000001
 43
0.0000000001
 40
0.0
 40
0.0
 40
0.0
 40
0.0
 40
1.080896953996447
 40
1.080896953996447
 40
1.080896953996447
 40
1.080896953996447
 10
0.522004789251175
 20
6.56530674850251
 30
-5.82478751888576
 10
0.1831904635199685
 20
6.58244175398971
 30
-5.712782890997326
 10
-0.1832163907476579
 20
6.582440442760732
 30
-5.712791461973145
 10
-0.522004789251174
 20
6.56530674850251
 30
-5.82478751888576
  0
ARC
  5
1DB
330
168
100
AcDbEntity
  8
Livello 01
100
AcDbCircle
 10
-0.000000000000021
 20
12.75969492454362
 30
-8.327067337219459
 40
9.999999999994396
210
-3.113916494754113E-16
220
-0.49999999998957
230
0.8660254037904604
100
AcDbArc
 50
90.0
 51
267.0077729034535
  0
ARC
  5
1DC
330
168
100
AcDbEntity
  8
Livello 01
100
AcDbCircle
 10
-0.000000000000021
 20
12.75969492454362
 30
-8.327067337219459
 40
9.999999999994396
210
-3.113916494754113E-16
220
-0.49999999998957
230
0.8660254037904604
100
AcDbArc
 50
272.9922270965467
 51
90.0
  0
LINE
  5
1DD
330
168
100
AcDbEntity
  8
Livello 01
100
AcDbLine
 10
0.0
 20
23.19099495369055
 30
4.351408311032356
 11
0.0
 21
23.87400765573977
 31
4.168395609098068
  0
ARC
  5
1DE
330
168
100
AcDbEntity
  8
Livello 01
100
AcDbCircle
 10
0.0
 20
12.75969492444891
 30
7.827067337252554
 40
9.5
210
1.232595164407831E-32
220
0.5000000000000018
230
-0.8660254037844377
100
AcDbArc
 50
270.0
 51
89.99999999999999
  0
CIRCLE
  5
1DF
330
168
100
AcDbEntity
  8
Livello 01
100
AcDbCircle
 10
0.0
 20
12.75969492444894
 30
-13.35481387699776
 40
8.899999999999974
210
0.0
220
-0.5000000000000006
230
0.8660254037844384
  0
LINE
  5
1E0
330
168
100
AcDbEntity
  8
Livello 01
100
AcDbLine
 10
-8.899999999999984
 20
17.99150015748364
 30
-5.64280252824725
 11
-8.89999999999998
 21
17.4637536177384
 31
-4.728718707889824
  0
LINE
  5
1E1
330
168
100
AcDbEntity
  8
Livello 01
100
AcDbLine
 10
0.0
 20
10.28387406380215
 30
-10.09280252824725
 11
0.0
 21
9.756127524056911
 31
-9.178718707889818
  0
LINE
  5
1E2
330
168
100
AcDbEntity
  8
Livello 01
100
AcDbLine
 10
8.899999999999984
 20
17.99150015748364
 30
-5.64280252824725
 11
8.89999999999998
 21
17.4637536177384
 31
-4.728718707889824
  0
ARC
  5
1E3
330
168
100
AcDbEntity
  8
Livello 01
100
AcDbCircle
 10
0.0
 20
0.0000000000009483
 30
8.512638922402402
 40
22.5
210
0.0
220
1.0
230
0.0
100
AcDbArc
 50
90.0
 51
217.1578187850912
  0
ARC
  5
1E4
330
168
100
AcDbEntity
  8
Livello 01
100
AcDbCircle
 10
0.0
 20
0.0000000000009483
 30
8.512638922402402
 40
22.5
210
0.0
220
1.0
230
0.0
100
AcDbArc
 50
322.8421812149087
 51
89.99999999999999
  0
LINE
  5
1E5
330
168
100
AcDbEntity
  8
Livello 01
100
AcDbLine
 10
22.5
 20
-53.99999999999973
 30
0.0000000000001587
 11
22.5
 21
32.05413467450499
 31
0.0000000000012457
  0
LINE
  5
1E6
330
168
100
AcDbEntity
  8
Livello 01
100
AcDbLine
 10
0.0
 20
-53.99999999999945
 30
-22.49999999999984
 11
0.0
 21
-50.64999999999992
 31
-22.4999999999998
  0
LINE
  5
1E7
330
168
100
AcDbEntity
  8
Livello 01
100
AcDbLine
 10
0.0
 20
-40.34999999999992
 30
-22.49999999999967
 11
0.0
 21
-23.51700851267396
 31
-22.49999999999946
  0
LINE
  5
1E8
330
168
100
AcDbEntity
  8
Livello 01
100
AcDbLine
 10
0.0
 20
-13.11700849579445
 30
-22.49999999999932
 11
0.0
 21
-6.917008495794503
 31
-22.49999999999925
  0
LINE
  5
1E9
330
168
100
AcDbEntity
  8
Livello 01
100
AcDbLine
 10
-22.5
 20
-53.99999999999973
 30
0.0000000000001587
 11
-22.5
 21
32.05413467450499
 31
0.0000000000012457
  0
LINE
  5
1EA
330
168
100
AcDbEntity
  8
Livello 01
100
AcDbLine
 10
-18.0
 20
-45.5
 30
13.5
 11
-17.15
 21
-45.5
 31
13.5
  0
LINE
  5
1EB
330
168
100
AcDbEntity
  8
Livello 01
100
AcDbLine
 10
-12.0
 20
-51.65
 30
13.5
 11
-12.0
 21
-50.65
 31
13.5
  0
LINE
  5
1EC
330
168
100
AcDbEntity
  8
Livello 01
100
AcDbLine
 10
-12.0
 20
-40.34999999999999
 30
13.5
 11
-12.0
 21
-39.35
 31
13.5
  0
LINE
  5
1ED
330
168
100
AcDbEntity
  8
Livello 01
100
AcDbLine
 10
-6.0
 20
-52.325
 30
20.3285513502561
 11
-6.0
 21
-52.325
 31
-3.700000000000011
  0
LINE
  5
1EE
330
168
100
AcDbEntity
  8
Livello 01
100
AcDbLine
 10
-6.0
 20
-54.00000000000001
 30
8.314275675128046
 11
-6.0
 21
-50.65
 31
8.314275675128046
  0
LINE
  5
1EF
330
168
100
AcDbEntity
  8
Livello 01
100
AcDbLine
 10
6.0
 20
-52.325
 30
-3.70000000000001
 11
6.000000000000001
 21
-52.325
 31
20.3285513502561
  0
LINE
  5
1F0
330
168
100
AcDbEntity
  8
Livello 01
100
AcDbLine
 10
6.0
 20
-54.00000000000001
 30
8.314275675128046
 11
6.0
 21
-50.65
 31
8.314275675128046
  0
ARC
  5
1F1
330
168
100
AcDbEntity
  8
Livello 01
100
AcDbCircle
 10
0.0
 20
-3.7
 30
52.325
 40
5.999999999999999
210
0.0
220
-1.0
230
0.0
100
AcDbArc
 50
180.0
 51
0.0
  0
LINE
  5
1F2
330
168
100
AcDbEntity
  8
Livello 01
100
AcDbLine
 10
0.0
 20
-50.65
 30
-9.7
 11
0.0
 21
-54.0
 31
-9.7
  0
LINE
  5
1F3
330
168
100
AcDbEntity
  8
Livello 01
100
AcDbLine
 10
17.15
 20
-45.5
 30
13.5
 11
18.0
 21
-45.5
 31
13.5
  0
LINE
  5
1F4
330
168
100
AcDbEntity
  8
Livello 01
100
AcDbLine
 10
12.0
 20
-51.65
 30
13.5
 11
12.0
 21
-50.65
 31
13.5
  0
LINE
  5
1F5
330
168
100
AcDbEntity
  8
Livello 01
100
AcDbLine
 10
12.0
 20
-40.34999999999999
 30
13.5
 11
12.0
 21
-39.35
 31
13.5
  0
ARC
  5
1F6
330
168
100
AcDbEntity
  8
Livello 01
100
AcDbCircle
 10
7.0
 20
20.3285513502561
 30
-52.825
 40
1.0
210
0.0
220
1.0
230
0.0
100
AcDbArc
 50
70.99919763708634
 51
180.0
  0
LINE
  5
1F7
330
168
100
AcDbEntity
  8
Livello 01
100
AcDbLine
 10
-7.0
 20
-54.0
 30
21.3285513502561
 11
-7.0
 21
-51.65
 31
21.3285513502561
  0
ARC
  5
1F8
330
168
100
AcDbEntity
  8
Livello 01
100
AcDbCircle
 10
-7.0
 20
20.3285513502561
 30
-52.825
 40
1.0
210
0.0
220
1.0
230
0.0
100
AcDbArc
 50
0.0
 51
109.0008023629136
  0
LINE
  5
1F9
330
168
100
AcDbEntity
  8
Livello 01
100
AcDbLine
 10
7.0
 20
-54.0
 30
21.3285513502561
 11
7.0
 21
-51.65
 31
21.3285513502561
  0
LINE
  5
1FA
330
168
100
AcDbEntity
  8
Livello 01
100
AcDbLine
 10
0.0000000000000053
 20
-54.0
 30
-9.699999999999996
 11
0.0000000000000053
 21
-54.0
 31
-22.50000000000008
  0
LINE
  5
1FB
330
168
100
AcDbEntity
  8
Livello 01
100
AcDbLine
 10
-22.49377753786242
 20
-54.0
 30
-0.5291238769490949
 11
-5.999999999999995
 21
-54.0
 31
-0.5291238769490949
  0
LINE
  5
1FC
330
168
100
AcDbEntity
  8
Livello 01
100
AcDbLine
 10
6.000000000000004
 20
-54.0
 30
-0.5291238769490949
 11
22.49377753786242
 21
-54.0
 31
-0.5291238769490949
  0
LINE
  5
1FD
330
168
100
AcDbEntity
  8
Livello 01
100
AcDbLine
 10
0.0
 20
-39.35
 30
22.50000000000001
 11
0.0
 21
-39.35
 31
4.500000000000003
  0
LINE
  5
1FE
330
168
100
AcDbEntity
  8
Livello 01
100
AcDbLine
 10
0.0
 20
-39.35
 30
-4.499999999999999
 11
0.0
 21
-39.35
 31
-9.699999999999994
  0
LINE
  5
1FF
330
168
100
AcDbEntity
  8
Livello 01
100
AcDbLine
 10
-5.999999999999998
 20
-39.35
 30
6.4
 11
6.000000000000002
 21
-39.35
 31
6.4
  0
LINE
  5
200
330
168
100
AcDbEntity
  8
Livello 01
100
AcDbLine
 10
-12.0
 20
-51.64999999999999
 30
13.5
 11
-12.0
 21
-51.65
 31
19.03286631067428
  0
LINE
  5
201
330
168
100
AcDbEntity
  8
Livello 01
100
AcDbLine
 10
-14.17809886737316
 20
-51.64999999999999
 30
17.47087612305095
 11
-6.000000000000001
 21
-51.64999999999999
 31
17.47087612305095
  0
LINE
  5
202
330
168
100
AcDbEntity
  8
Livello 01
100
AcDbLine
 10
12.0
 20
-51.64999999999999
 30
13.5
 11
12.0
 21
-51.65
 31
19.03286631067428
  0
LINE
  5
203
330
168
100
AcDbEntity
  8
Livello 01
100
AcDbLine
 10
6.0
 20
-51.64999999999999
 30
17.47087612305095
 11
14.17809886737317
 21
-51.64999999999999
 31
17.47087612305095
  0
LINE
  5
204
330
168
100
AcDbEntity
  8
Livello 01
100
AcDbLine
 10
17.15
 20
-43.25
 30
-0.532298744215268
 11
17.15
 21
-47.75
 31
-0.532298744215268
  0
LINE
  5
205
330
168
100
AcDbEntity
  8
Livello 01
100
AcDbLine
 10
17.15
 20
-45.5
 30
-14.56459748843054
 11
17.15
 21
-45.5
 31
13.5
  0
LINE
  5
206
330
168
100
AcDbEntity
  8
Livello 01
100
AcDbLine
 10
-14.25
 20
-40.35
 30
-7.78715411357075
 11
-4.392626919273065
 21
-40.35
 31
-7.78715411357075
  0
LINE
  5
207
330
168
100
AcDbEntity
  8
Livello 01
100
AcDbLine
 10
4.392626919272965
 20
-40.35
 30
-7.78715411357075
 11
14.25
 21
-40.35
 31
-7.78715411357075
  0
LINE
  5
208
330
168
100
AcDbEntity
  8
Livello 01
100
AcDbLine
 10
0.0
 20
-40.35
 30
-22.5
 11
0.0
 21
-40.35
 31
-9.699999999999818
  0
LINE
  5
209
330
168
100
AcDbEntity
  8
Livello 01
100
AcDbLine
 10
-17.14999999999999
 20
-47.75
 30
-0.532298744215268
 11
-17.15
 21
-43.25
 31
-0.532298744215268
  0
LINE
  5
20A
330
168
100
AcDbEntity
  8
Livello 01
100
AcDbLine
 10
-17.15
 20
-45.5
 30
-14.56459748843054
 11
-17.15
 21
-45.5
 31
13.5
  0
LINE
  5
20B
330
168
100
AcDbEntity
  8
Livello 01
100
AcDbLine
 10
14.25
 20
-50.65
 30
-7.78715411357075
 11
4.392626919272852
 21
-50.65
 31
-7.78715411357075
  0
LINE
  5
20C
330
168
100
AcDbEntity
  8
Livello 01
100
AcDbLine
 10
-4.392626919273066
 20
-50.65
 30
-7.78715411357075
 11
-14.25
 21
-50.65
 31
-7.78715411357075
  0
LINE
  5
20D
330
168
100
AcDbEntity
  8
Livello 01
100
AcDbLine
 10
0.0
 20
-50.65
 30
-22.5
 11
0.0
 21
-50.65
 31
-9.700000000000047
  0
ARC
  5
20E
330
168
100
AcDbEntity
  8
Livello 01
100
AcDbCircle
 10
-14.25
 20
-43.25
 30
-1.956140074682878
 40
2.9
100
AcDbArc
 50
90.0
 51
180.0
  0
ARC
  5
20F
330
168
100
AcDbEntity
  8
Livello 01
100
AcDbCircle
 10
14.25
 20
-43.25
 30
-1.956140074682878
 40
2.899999999999999
100
AcDbArc
 50
0.0
 51
90.0
  0
ARC
  5
210
330
168
100
AcDbEntity
  8
Livello 01
100
AcDbCircle
 10
14.25
 20
-47.75
 30
-1.956140074682878
 40
2.899999999999999
100
AcDbArc
 50
270.0
 51
0.0
  0
ARC
  5
211
330
168
100
AcDbEntity
  8
Livello 01
100
AcDbCircle
 10
-14.25
 20
-47.75
 30
-1.956140074682878
 40
2.9
100
AcDbArc
 50
180.0
 51
270.0
  0
LINE
  5
212
330
168
100
AcDbEntity
  8
Livello 01
100
AcDbLine
 10
6.0
 20
-39.85
 30
-3.7
 11
6.0
 21
-39.85
 31
13.5
  0
LINE
  5
213
330
168
100
AcDbEntity
  8
Livello 01
100
AcDbLine
 10
6.0
 20
-40.35
 30
4.9
 11
6.0
 21
-39.35
 31
4.9
  0
LINE
  5
214
330
168
100
AcDbEntity
  8
Livello 01
100
AcDbLine
 10
-6.000000000000002
 20
-39.85
 30
13.5
 11
-6.0
 21
-39.85
 31
-3.70000000000001
  0
LINE
  5
215
330
168
100
AcDbEntity
  8
Livello 01
100
AcDbLine
 10
-6.000000000000001
 20
-40.35
 30
4.899999999999995
 11
-6.000000000000001
 21
-39.35
 31
4.899999999999995
  0
ARC
  5
216
330
168
100
AcDbEntity
  8
Livello 01
100
AcDbCircle
 10
0.0
 20
-3.7
 30
-39.85
 40
6.0
210
0.0
220
1.0
230
0.0
100
AcDbArc
 50
180.0
 51
0.0
  0
LINE
  5
217
330
168
100
AcDbEntity
  8
Livello 01
100
AcDbLine
 10
0.0
 20
-40.35
 30
-9.7
 11
0.0
 21
-39.35
 31
-9.7
  0
LINE
  5
218
330
168
100
AcDbEntity
  8
Livello 01
100
AcDbLine
 10
0.0000000000001427
 20
-0.350000000000003
 30
-4.5
 11
0.0000000000001427
 21
-0.350000000000003
 31
4.500000000000001
  0
LINE
  5
219
330
168
100
AcDbEntity
  8
Livello 01
100
AcDbLine
 10
-4.499999999999857
 20
-0.350000000000003
 30
0.0
 11
4.500000000000142
 21
-0.350000000000003
 31
0.0
  0
CIRCLE
  5
21A
330
168
100
AcDbEntity
  8
Livello 01
100
AcDbCircle
 10
0.0000000000001422
 20
0.0
 30
19.84999999999999
 40
4.5
210
0.0
220
-1.0
230
0.0
  0
LINE
  5
21B
330
168
100
AcDbEntity
  8
Livello 01
100
AcDbLine
 10
4.500000000000142
 20
-0.3500000000000019
 30
0.0
 11
4.500000000000142
 21
-39.35
 31
0.0
  0
LINE
  5
21C
330
168
100
AcDbEntity
  8
Livello 01
100
AcDbLine
 10
0.0000000000001422
 20
-0.3500000000000019
 30
4.5
 11
0.0000000000001422
 21
-39.35
 31
4.5
  0
LINE
  5
21D
330
168
100
AcDbEntity
  8
Livello 01
100
AcDbLine
 10
-4.499999999999858
 20
-0.3500000000000019
 30
0.0
 11
-4.499999999999858
 21
-39.35
 31
0.0
  0
LINE
  5
21E
330
168
100
AcDbEntity
  8
Livello 01
100
AcDbLine
 10
0.0
 20
-6.917008495794519
 30
-22.49999999999999
 11
0.0
 21
2.609270945834083
 31
-17.00000000000009
  0
LINE
  5
21F
330
168
100
AcDbEntity
  8
Livello 01
100
AcDbLine
 10
0.0
 20
35.51823628964272
 30
1.99999999999998
 11
0.0
 21
71.02527784480452
 31
22.49999999999997
  0
LINE
  5
220
330
168
100
AcDbEntity
  8
Livello 01
100
AcDbLine
 10
-22.49999999999977
 20
32.05413467450501
 30
0.0000000000000036
 11
-11.66190378969054
 21
32.05413467450501
 31
0.0000000000000036
  0
LINE
  5
221
330
168
100
AcDbEntity
  8
Livello 01
100
AcDbLine
 10
11.66190378969054
 20
32.05413467450501
 30
0.0000000000000036
 11
22.50000000000023
 21
32.05413467450501
 31
0.0000000000000036
  0
CIRCLE
  5
222
330
168
100
AcDbEntity
  8
Livello 01
100
AcDbCircle
 10
0.0
 20
12.75969492444891
 30
15.00206733725255
 40
16.0
210
0.0
220
0.5000000000000019
230
-0.8660254037844376
  0
LINE
  5
223
330
168
100
AcDbEntity
  8
Livello 01
100
AcDbLine
 10
0.0000000000000067
 20
31.89516007828939
 30
2.275352077758086
 11
0.0000000000000075
 21
32.9201600782894
 31
0.4999999999999911
  0
LINE
  5
224
330
168
100
AcDbEntity
  8
Livello 01
100
AcDbLine
 10
16.0
 20
18.03875361773839
 30
-5.724647922241942
 11
16.0
 21
19.06375361773839
 31
-7.500000000000037
  0
LINE
  5
225
330
168
100
AcDbEntity
  8
Livello 01
100
AcDbLine
 10
-0.0000000000000067
 20
4.182347157187394
 30
-13.72464792224197
 11
-0.0000000000000075
 21
5.207347157187396
 31
-15.50000000000006
  0
CIRCLE
  5
226
330
168
100
AcDbEntity
  8
Livello 01
100
AcDbCircle
 10
0.0
 20
12.75969492444889
 30
15.00206733725253
 40
19.0
210
0.0
220
0.5000000000000019
230
-0.8660254037844376
  0
LINE
  5
227
330
168
100
AcDbEntity
  8
Livello 01
100
AcDbLine
 10
0.0000000000000093
 20
34.4932362896427
 30
3.775352077758098
 11
0.0000000000000102
 21
35.51823628964271
 31
2.0
  0
LINE
  5
228
330
168
100
AcDbEntity
  8
Livello 01
100
AcDbLine
 10
19.0
 20
18.03875361773838
 30
-5.724647922241936
 11
19.0
 21
19.06375361773838
 31
-7.500000000000034
  0
LINE
  5
229
330
168
100
AcDbEntity
  8
Livello 01
100
AcDbLine
 10
-0.0000000000000093
 20
1.584270945834075
 30
-15.22464792224198
 11
-0.0000000000000102
 21
2.60927094583408
 31
-17.00000000000007
  0
LINE
  5
22A
330
168
100
AcDbEntity
  8
Livello 01
100
AcDbLine
 10
0.0000000000000018
 20
34.49323628964271
 30
3.775352077758088
 11
0.0000000000000018
 21
31.8951600782894
 31
2.275352077758085
  0
LINE
  5
22B
330
168
100
AcDbEntity
  8
Livello 01
100
AcDbLine
 10
0.0000000000000018
 20
4.1823471571874
 30
-13.72464792224197
 11
0.0000000000000018
 21
1.584270945834088
 31
-15.22464792224197
  0
LINE
  5
22C
330
168
100
AcDbEntity
  8
Livello 01
100
AcDbLine
 10
-19.0
 20
18.0387536177384
 30
-5.72464792224194
 11
-16.0
 21
18.0387536177384
 31
-5.72464792224194
  0
LINE
  5
22D
330
168
100
AcDbEntity
  8
Livello 01
100
AcDbLine
 10
16.0
 20
18.0387536177384
 30
-5.72464792224194
 11
19.0
 21
18.0387536177384
 31
-5.72464792224194
  0
LINE
  5
22E
330
168
100
AcDbEntity
  8
Livello 01
100
AcDbLine
 10
0.0
 20
5.207347157187392
 30
-15.50000000000008
 11
0.0
 21
7.372410666648499
 31
-14.25000000000007
  0
LINE
  5
22F
330
168
100
AcDbEntity
  8
Livello 01
100
AcDbLine
 10
0.0
 20
30.75509656882831
 30
-0.7500000000000266
 11
0.0
 21
32.92016007828941
 31
0.4999999999999729
  0
LINE
  5
230
330
168
100
AcDbEntity
  8
Livello 01
100
AcDbLine
 10
-16.0
 20
19.06375361773843
 30
-7.500000000000032
 11
-13.5
 21
19.06375361773843
 31
-7.500000000000032
  0
LINE
  5
231
330
168
100
AcDbEntity
  8
Livello 01
100
AcDbLine
 10
13.50000000000023
 20
19.06375361773843
 30
-7.500000000000032
 11
16.00000000000023
 21
19.06375361773843
 31
-7.500000000000032
  0
CIRCLE
  5
232
330
168
100
AcDbEntity
  8
Livello 01
100
AcDbCircle
 10
0.0
 20
12.7596949244489
 30
15.27706733725254
 40
13.5
210
0.0
220
0.5000000000000019
230
-0.8660254037844376
  0
LINE
  5
233
330
168
100
AcDbEntity
  8
Livello 01
100
AcDbLine
 10
0.0000000000000076
 20
30.0050965688283
 30
0.549038105676642
 11
0.0000000000000084
 21
30.7550965688283
 31
-0.7500000000000098
  0
LINE
  5
234
330
168
100
AcDbEntity
  8
Livello 01
100
AcDbLine
 10
13.5
 20
18.31375361773839
 30
-6.200961894323382
 11
13.5
 21
19.06375361773839
 31
-7.500000000000034
  0
LINE
  5
235
330
168
100
AcDbEntity
  8
Livello 01
100
AcDbLine
 10
-0.0000000000000076
 20
6.622410666648486
 30
-12.95096189432341
 11
-0.0000000000000084
 21
7.372410666648486
 31
-14.25000000000006
  0
LINE
  5
236
330
168
100
AcDbEntity
  8
Livello 01
100
AcDbLine
 10
0.0
 20
30.00509656882831
 30
0.5490381056766419
 11
0.0
 21
26.28165369829214
 31
-1.600692637939617
  0
LINE
  5
237
330
168
100
AcDbEntity
  8
Livello 01
100
AcDbLine
 10
0.0
 20
10.34585353718466
 30
-10.80123115070715
 11
0.0
 21
6.622410666648493
 31
-12.9509618943234
  0
LINE
  5
238
330
168
100
AcDbEntity
  8
Livello 01
100
AcDbLine
 10
-13.5
 20
18.3137536177384
 30
-6.200961894323378
 11
-9.200538512767501
 21
18.3137536177384
 31
-6.200961894323378
  0
LINE
  5
239
330
168
100
AcDbEntity
  8
Livello 01
100
AcDbLine
 10
9.200538512767501
 20
18.3137536177384
 30
-6.200961894323378
 11
13.50000000000001
 21
18.3137536177384
 31
-6.200961894323378
  0
LINE
  5
23A
330
168
100
AcDbEntity
  8
Livello 01
100
AcDbLine
 10
0.0
 20
25.69912625116515
 30
-1.192802528247235
 11
0.0
 21
26.28165369829215
 31
-1.600692637939614
  0
LINE
  5
23B
330
168
100
AcDbEntity
  8
Livello 01
100
AcDbLine
 10
8.90000000000002
 20
17.99150015748364
 30
-5.642802528247259
 11
9.200538512767505
 21
18.3137536177384
 31
-6.20096189432338
  0
LINE
  5
23C
330
168
100
AcDbEntity
  8
Livello 01
100
AcDbLine
 10
0.0
 20
10.28387406380212
 30
-10.09280252824729
 11
0.0
 21
10.34585353718465
 31
-10.80123115070715
  0
CIRCLE
  5
23D
330
168
100
AcDbEntity
  8
Livello 01
100
AcDbCircle
 10
-0.0000000000061666
 20
-10.32706733725243
 30
3.125132126233016
 40
2.067
210
-5.027426394396132E-13
220
-0.8660254037844376
230
-0.5000000000000019
  0
LINE
  5
23E
330
168
100
AcDbEntity
  8
Livello 01
100
AcDbLine
 10
-0.0000000000011452
 20
8.64481799848636
 30
-9.320348228512648
 11
-0.0000000000071437
 21
-1.695051227675564
 31
-15.29007450962279
  0
LINE
  5
23F
330
168
100
AcDbEntity
  8
Livello 01
100
AcDbLine
 10
2.066999999998327
 20
7.740523225472767
 30
-7.45567704630821
 11
2.066999999992249
 21
-2.728551227676768
 31
-13.50000000000035
  0
LINE
  5
240
330
168
100
AcDbEntity
  8
Livello 01
100
AcDbLine
 10
-0.0000000000023483
 20
6.577817998486681
 30
-5.740199209267594
 11
-0.0000000000083547
 21
-3.762051227675572
 31
-11.70992549037793
  0
LINE
  5
241
330
168
100
AcDbEntity
  8
Livello 01
100
AcDbLine
 10
0.0
 20
-1.428551227674574
 30
-15.75166604983954
 11
0.0
 21
-1.695051227674576
 31
-15.29007450962243
  0
LINE
  5
242
330
168
100
AcDbEntity
  8
Livello 01
100
AcDbLine
 10
0.0
 20
-3.762051227674584
 30
-11.70992549037757
 11
0.0
 21
-4.028551227674586
 31
-11.24833395016046
  0
LINE
  5
243
330
168
100
AcDbEntity
  8
Livello 01
100
AcDbLine
 10
-2.6
 20
-2.72855122767458
 30
-13.5
 11
-2.067
 21
-2.72855122767458
 31
-13.5
  0
LINE
  5
244
330
168
100
AcDbEntity
  8
Livello 01
100
AcDbLine
 10
2.067
 20
-2.72855122767458
 30
-13.5
 11
2.6
 21
-2.72855122767458
 31
-13.5
  0
CIRCLE
  5
245
330
168
100
AcDbEntity
  8
Livello 01
100
AcDbCircle
 10
-0.0000000000000018
 20
-10.32706733725263
 30
-19.28160692393471
 40
2.599999999999973
210
5.302701060230028E-17
220
0.8660254037844384
230
0.5000000000000006
  0
LINE
  5
246
330
168
100
AcDbEntity
  8
Livello 01
100
AcDbLine
 10
-2.599999999999994
 20
-18.05593311958124
 30
-22.34926806126451
 11
-2.599999999999969
 21
-2.728551227674572
 31
-13.49999999999998
  0
LINE
  5
247
330
168
100
AcDbEntity
  8
Livello 01
100
AcDbLine
 10
0.000000000000002
 20
-23.51700850421789
 30
-22.50000000486326
 11
0.0000000000000032
 21
-4.028551227674553
 31
-11.24833395016047
  0
LINE
  5
248
330
168
100
AcDbEntity
  8
Livello 01
100
AcDbLine
 10
2.599999999999994
 20
-18.05590829583343
 30
-22.34925372926703
 11
2.599999999999969
 21
-2.72855122767457
 31
-13.49999999999999
  0
LINE
  5
249
330
168
100
AcDbEntity
  8
Livello 01
100
AcDbLine
 10
0.0
 20
25.69099495369056
 30
0.0212812921101753
 11
0.0
 21
25.1713797114199
 31
-0.2787187078898228
  0
LINE
  5
24A
330
168
100
AcDbEntity
  8
Livello 01
100
AcDbLine
 10
0.0
 20
9.756127524056906
 30
-9.178718707889855
 11
0.0
 21
9.236512281786247
 31
-9.478718707889856
  0
LINE
  5
24B
330
168
100
AcDbEntity
  8
Livello 01
100
AcDbLine
 10
-9.5
 20
17.4637536177384
 30
-4.72871870788984
 11
-8.899999999999999
 21
17.4637536177384
 31
-4.72871870788984
  0
LINE
  5
24C
330
168
100
AcDbEntity
  8
Livello 01
100
AcDbLine
 10
8.900000000000002
 20
17.4637536177384
 30
-4.72871870788984
 11
9.5
 21
17.4637536177384
 31
-4.72871870788984
  0
LINE
  5
24D
330
168
100
AcDbEntity
  8
Livello 01
100
AcDbLine
 10
0.0
 20
23.19099495369056
 30
4.351408311032369
 11
0.0
 21
22.6713797114199
 31
4.051408311032369
  0
LINE
  5
24E
330
168
100
AcDbEntity
  8
Livello 01
100
AcDbLine
 10
0.0
 20
7.256127524056908
 30
-4.848591688967661
 11
0.0
 21
6.736512281786246
 31
-5.148591688967661
  0
LINE
  5
24F
330
168
100
AcDbEntity
  8
Livello 01
100
AcDbLine
 10
-9.499999999999995
 20
14.9637536177384
 30
-0.3985916889676461
 11
-8.899999999999999
 21
14.9637536177384
 31
-0.3985916889676461
  0
LINE
  5
250
330
168
100
AcDbEntity
  8
Livello 01
100
AcDbLine
 10
8.900000000000002
 20
14.9637536177384
 30
-0.3985916889676461
 11
9.5
 21
14.9637536177384
 31
-0.3985916889676461
  0
ARC
  5
251
330
168
100
AcDbEntity
  8
Livello 01
100
AcDbCircle
 10
0.0
 20
12.75969492444892
 30
-10.3270673373966
 40
9.999999999999998
210
0.0
220
-0.5000000000000006
230
0.8660254037844384
100
AcDbArc
 50
281.9290334379349
 51
258.0709663619774
  0
LINE
  5
252
330
168
100
AcDbEntity
  8
Livello 01
100
AcDbLine
 10
10.00000000000002
 20
17.21375361773855
 30
-4.29570600599785
 11
10.00000000000002
 21
15.21375361773857
 31
-0.8316043908601367
  0
LINE
  5
253
330
168
100
AcDbEntity
  8
Livello 01
100
AcDbLine
 10
0.0
 20
25.87400765558305
 30
0.7042939940019899
 11
0.0
 21
23.87400765558297
 31
4.16839560913988
  0
LINE
  5
254
330
168
100
AcDbEntity
  8
Livello 01
100
AcDbLine
 10
-10.00000000000001
 20
17.21375361773875
 30
-4.2957060059982
 11
-10.00000000000002
 21
15.21375361773857
 31
-0.8316043908601367
  0
LINE
  5
255
330
168
100
AcDbEntity
  8
Livello 01
100
AcDbLine
 10
0.0
 20
12.65535430763545
 30
19.39967320028762
 11
0.0
 21
-1.027847072158668
 31
11.49967320028758
  0
LINE
  5
256
330
168
100
AcDbEntity
  8
Livello 01
100
AcDbLine
 10
-7.9
 20
5.81375361773839
 30
15.4496732002876
 11
7.9
 21
5.81375361773839
 31
15.4496732002876
  0
CIRCLE
  5
257
330
168
100
AcDbEntity
  8
Livello 01
100
AcDbCircle
 10
0.0
 20
12.75969492444892
 30
4.723510084925785
 40
7.900000000000001
210
0.0
220
-0.5000000000000019
230
0.8660254037844376
  0
LINE
  5
258
330
168
100
AcDbEntity
  8
Livello 01
100
AcDbLine
 10
-7.899999999999999
 20
11.56317619556007
 30
5.49138118131682
 11
-7.899999999999999
 21
5.813753617738366
 31
15.44967320028758
  0
LINE
  5
259
330
168
100
AcDbEntity
  8
Livello 01
100
AcDbLine
 10
0.0
 20
4.721575505663013
 30
1.541381181316805
 11
0.0
 21
-1.027847072158689
 31
11.49967320028757
  0
LINE
  5
25A
330
168
100
AcDbEntity
  8
Livello 01
100
AcDbLine
 10
7.899999999999999
 20
11.56317619556007
 30
5.49138118131682
 11
7.899999999999999
 21
5.813753617738366
 31
15.44967320028758
  0
LINE
  5
25B
330
168
100
AcDbEntity
  8
Livello 01
100
AcDbLine
 10
-7.900000000000002
 20
11.56317619556005
 30
5.491381181316835
 11
-8.599999999999998
 21
12.3137536177384
 31
4.191342951089871
  0
LINE
  5
25C
330
168
100
AcDbEntity
  8
Livello 01
100
AcDbLine
 10
0.0
 20
18.40477688545711
 30
9.441381181316853
 11
0.0
 21
19.76157209028456
 31
8.491342951089887
  0
LINE
  5
25D
330
168
100
AcDbEntity
  8
Livello 01
100
AcDbLine
 10
7.900000000000002
 20
11.56317619556005
 30
5.491381181316835
 11
8.599999999999998
 21
12.3137536177384
 31
4.191342951089871
  0
LINE
  5
25E
330
168
100
AcDbEntity
  8
Livello 01
100
AcDbLine
 10
-0.0000000000000009
 20
20.02137971141989
 30
8.641342951089886
 11
-0.0000000000000009
 21
19.76157209028456
 31
8.491342951089885
  0
LINE
  5
25F
330
168
100
AcDbEntity
  8
Livello 01
100
AcDbLine
 10
-0.0000000000000009
 20
4.86593514519224
 30
-0.1086570489101425
 11
-0.0000000000000009
 21
4.606127524056904
 31
-0.2586570489101451
  0
LINE
  5
260
330
168
100
AcDbEntity
  8
Livello 01
100
AcDbLine
 10
-8.9
 20
12.3137536177384
 30
4.191342951089869
 11
-8.6
 21
12.3137536177384
 31
4.191342951089869
  0
LINE
  5
261
330
168
100
AcDbEntity
  8
Livello 01
100
AcDbLine
 10
8.599999999999998
 20
12.3137536177384
 30
4.191342951089869
 11
8.899999999999995
 21
12.3137536177384
 31
4.191342951089869
  0
CIRCLE
  5
262
330
168
100
AcDbEntity
  8
Livello 01
100
AcDbCircle
 10
0.0
 20
12.75969492444892
 30
-5.177067337252527
 40
8.899999999999986
210
0.0
220
-0.5000000000000006
230
0.8660254037844384
  0
LINE
  5
263
330
168
100
AcDbEntity
  8
Livello 01
100
AcDbLine
 10
-8.899999999999984
 20
14.96375361773839
 30
-0.3985916889676364
 11
-8.899999999999977
 21
12.31375361773839
 31
4.191342951089883
  0
LINE
  5
264
330
168
100
AcDbEntity
  8
Livello 01
100
AcDbLine
 10
0.0
 20
7.256127524056906
 30
-4.848591688967634
 11
0.0
 21
4.606127524056911
 31
-0.2586570489101101
  0
LINE
  5
265
330
168
100
AcDbEntity
  8
Livello 01
100
AcDbLine
 10
8.899999999999984
 20
14.96375361773839
 30
-0.3985916889676364
 11
8.899999999999977
 21
12.31375361773839
 31
4.191342951089883
  0
LINE
  5
266
330
168
100
AcDbEntity
  8
Livello 01
100
AcDbLine
 10
9.499999999999998
 20
17.4637536177384
 30
-4.72871870788984
 11
9.999999999999874
 21
17.21375361773846
 31
-4.295706005997726
  0
LINE
  5
267
330
168
100
AcDbEntity
  8
Livello 01
100
AcDbLine
 10
0.0
 20
25.69099495369056
 30
0.0212812921101762
 11
0.0
 21
25.8740076555827
 31
0.7042939940021213
  0
LINE
  5
268
330
168
100
AcDbEntity
  8
Livello 01
100
AcDbLine
 10
-9.499999999999998
 20
17.4637536177384
 30
-4.72871870788984
 11
-9.999999999999716
 21
17.21375361773854
 31
-4.295706005997864
  0
LINE
  5
269
330
168
100
AcDbEntity
  8
Livello 01
100
AcDbLine
 10
9.49999999999999
 20
14.96375361773839
 30
-0.3985916889676355
 11
10.00000000005657
 21
15.21375361776668
 31
-0.8316043909088551
  0
LINE
  5
26A
330
168
100
AcDbEntity
  8
Livello 01
100
AcDbLine
 10
0.0
 20
6.736512281786228
 30
-5.148591688967627
 11
0.0
 21
6.577855630285446
 31
-5.740706373327298
  0
LINE
  5
26B
330
168
100
AcDbEntity
  8
Livello 01
100
AcDbLine
 10
-9.49999999999999
 20
14.96375361773839
 30
-0.3985916889676355
 11
-10.00000000005657
 21
15.21375361776668
 31
-0.8316043909088551
  0
ENDBLK
  5
26D
330
168
100
AcDbEntity
  8
0
100
AcDbBlockEnd
  0
BLOCK
  5
319
330
26F
100
AcDbEntity
  8
0
100
AcDbBlockBegin
  2
10RD00460YY
 70
     0
 10
0.0
 20
0.0
 30
0.0
  3
10RD00460YY
  1

  0
SPLINE
  5
270
330
26F
100
AcDbEntity
  8
Livello 01
 62
   250
420
  3355443
100
AcDbSpline
 70
     0
 71
     3
 72
    10
 73
     6
 74
     0
 42
0.0000000001
 43
0.0000000001
 40
0.0
 40
0.0
 40
0.0
 40
0.0
 40
0.7097728947572826
 40
1.419545789514575
 40
2.839091579029081
 40
2.839091579029081
 40
2.839091579029081
 40
2.839091579029081
 10
15.8000000000002
 20
-43.25
 30
-16.019051157918
 10
15.8000000000002
 20
-43.0156431208544
 30
-16.019051157918
 10
15.68478944590939
 20
-42.56074989608791
 30
-16.13348174397761
 10
15.17432104153879
 20
-41.93071148058515
 30
-16.62118234936661
 10
14.658798962217
 20
-41.75000000000007
 30
-17.07587740348181
 10
14.3000000000002
 20
-41.7500000000001
 30
-17.3712406004866
  0
ARC
  5
271
330
26F
100
AcDbEntity
  8
Livello 01
 62
   250
420
  3355443
100
AcDbCircle
 10
-0.0000000000000009
 20
0.0000000000000338
 30
-41.74999999999997
 40
22.50000000000002
210
0.0
220
1.0
230
0.0
100
AcDbArc
 50
230.5387988274084
 51
309.4612011725916
  0
SPLINE
  5
272
330
26F
100
AcDbEntity
  8
Livello 01
 62
   250
420
  3355443
100
AcDbSpline
 70
     0
 71
     3
 72
     9
 73
     5
 74
     0
 42
0.0000000001
 43
0.0000000001
 40
0.0
 40
0.0
 40
0.0
 40
0.0
 40
1.452715282729259
 40
2.905430565458518
 40
2.905430565458518
 40
2.905430565458518
 40
2.905430565458518
 10
-14.3000000000002
 20
-41.75
 30
-17.3712406004866
 10
-14.6586504620249
 20
-41.75
 30
-17.0759996487949
 10
-15.3496456793064
 20
-41.9793723209207
 30
-16.4665100674227
 10
-15.8000000000002
 20
-42.7818544506709
 30
-16.019051157918
 10
-15.8000000000002
 20
-43.25
 30
-16.019051157918
  0
SPLINE
  5
273
330
26F
100
AcDbEntity
  8
Livello 01
 62
   250
420
  3355443
100
AcDbSpline
210
0.0
220
0.0
230
1.0
 70
    24
 71
     2
 72
     6
 73
     3
 74
     0
 42
0.0000000001
 43
0.0000000001
 40
0.0
 40
0.0
 40
0.0
 40
4.5003333185199
 40
4.5003333185199
 40
4.5003333185199
 10
-15.8000000000002
 20
-43.25
 30
-16.019051157918
 10
-15.8000000000002
 20
-45.50016665925995
 30
-16.019051157918
 10
-15.8000000000002
 20
-47.7503333185199
 30
-16.019051157918
  0
SPLINE
  5
274
330
26F
100
AcDbEntity
  8
Livello 01
 62
   250
420
  3355443
100
AcDbSpline
 70
     0
 71
     3
 72
    10
 73
     6
 74
     0
 42
0.0000000001
 43
0.0000000001
 40
0.0
 40
0.0
 40
0.0
 40
0.0
 40
0.7097728947572802
 40
1.41954578951456
 40
2.839091579029129
 40
2.839091579029129
 40
2.839091579029129
 40
2.839091579029129
 10
-15.8000000000002
 20
-47.7503333185199
 30
-16.019051157918
 10
-15.8000000000002
 20
-47.9846901976655
 30
-16.019051157918
 10
-15.6847894459094
 20
-48.439583422432
 30
-16.1334817439776
 10
-15.1743210415388
 20
-49.0696218379348
 30
-16.6211823493666
 10
-14.658798962217
 20
-49.2503333185199
 30
-17.0758774034818
 10
-14.3000000000002
 20
-49.2503333185199
 30
-17.3712406004866
  0
ARC
  5
275
330
26F
100
AcDbEntity
  8
Livello 01
 62
   250
420
  3355443
100
AcDbCircle
 10
-0.0000000000000009
 20
0.0000000000000338
 30
49.2503333185199
 40
22.50000000000002
210
0.0
220
-1.0
230
0.0
100
AcDbArc
 50
230.5387988274084
 51
309.4612011725916
  0
SPLINE
  5
276
330
26F
100
AcDbEntity
  8
Livello 01
 62
   250
420
  3355443
100
AcDbSpline
 70
     0
 71
     3
 72
     9
 73
     5
 74
     0
 42
0.0000000001
 43
0.0000000001
 40
0.0
 40
0.0
 40
0.0
 40
0.0
 40
1.452715282729232
 40
2.905430565458464
 40
2.905430565458464
 40
2.905430565458464
 40
2.905430565458464
 10
14.3000000000002
 20
-49.2503333185199
 30
-17.3712406004866
 10
14.6586504620249
 20
-49.2503333185199
 30
-17.0759996487949
 10
15.3496456793064
 20
-49.0209609975991
 30
-16.4665100674227
 10
15.8000000000002
 20
-48.218478867849
 30
-16.019051157918
 10
15.8000000000002
 20
-47.7503333185199
 30
-16.019051157918
  0
SPLINE
  5
277
330
26F
100
AcDbEntity
  8
Livello 01
 62
   250
420
  3355443
100
AcDbSpline
210
0.0
220
0.0
230
1.0
 70
    24
 71
     2
 72
     6
 73
     3
 74
     0
 42
0.0000000001
 43
0.0000000001
 40
0.0
 40
0.0
 40
0.0
 40
4.5003333185199
 40
4.5003333185199
 40
4.5003333185199
 10
15.8000000000002
 20
-47.7503333185199
 30
-16.019051157918
 10
15.8000000000002
 20
-45.50016665925995
 30
-16.019051157918
 10
15.8000000000002
 20
-43.25
 30
-16.019051157918
  0
ARC
  5
278
330
26F
100
AcDbEntity
  8
Livello 01
 62
   250
420
  3355443
100
AcDbCircle
 10
-0.0000000000000608
 20
0.0000000000000897
 30
-50.45
 40
22.50000000000007
210
0.0
220
1.0
230
0.0
100
AcDbArc
 50
230.7035197608128
 51
309.2964802391875
  0
SPLINE
  5
279
330
26F
100
AcDbEntity
  8
Livello 01
 62
   250
420
  3355443
100
AcDbSpline
210
0.0
220
0.0
230
1.0
 70
    24
 71
     2
 72
     6
 73
     3
 74
     0
 42
0.0000000001
 43
0.0000000001
 40
0.0
 40
0.0
 40
0.0
 40
4.5
 40
4.5
 40
4.5
 10
-16.9499999999998
 20
-47.75
 30
-14.7968746700108
 10
-16.9499999999998
 20
-45.5
 30
-14.7968746700108
 10
-16.9499999999998
 20
-43.25
 30
-14.7968746700108
  0
ARC
  5
27A
330
26F
100
AcDbEntity
  8
Livello 01
 62
   250
420
  3355443
100
AcDbCircle
 10
-0.000000000000183
 20
-0.0000000000004512
 30
40.55
 40
22.4999999999995
210
0.0
220
-1.0
230
0.0
100
AcDbArc
 50
230.7035197608121
 51
259.759651678814
  0
SPLINE
  5
27B
330
26F
100
AcDbEntity
  8
Livello 01
 62
   250
420
  3355443
100
AcDbSpline
210
0.0
220
0.0
230
1.0
 70
    24
 71
     2
 72
     6
 73
     3
 74
     0
 42
0.0000000001
 43
0.0000000001
 40
0.0
 40
0.0
 40
0.0
 40
0.2999999999999048
 40
0.2999999999999048
 40
0.2999999999999048
 10
-4.0
 20
-40.55
 30
-22.1415898254845
 10
-4.0
 20
-40.69999999999995
 30
-22.1415898254845
 10
-4.0
 20
-40.8499999999999
 30
-22.1415898254845
  0
ARC
  5
27C
330
26F
100
AcDbEntity
  8
Livello 01
 62
   250
420
  3355443
100
AcDbCircle
 10
-0.0000000000000004
 20
-0.0000000000007034
 30
40.8499999999999
 40
22.49999999999928
210
0.0
220
-1.0
230
0.0
100
AcDbArc
 50
259.7596516788134
 51
280.2403483211866
  0
SPLINE
  5
27D
330
26F
100
AcDbEntity
  8
Livello 01
 62
   250
420
  3355443
100
AcDbSpline
210
0.0
220
0.0
230
1.0
 70
    24
 71
     2
 72
     6
 73
     3
 74
     0
 42
0.0000000001
 43
0.0000000001
 40
0.0
 40
0.0
 40
0.0
 40
0.2999999999999048
 40
0.2999999999999048
 40
0.2999999999999048
 10
4.0
 20
-40.8499999999999
 30
-22.1415898254845
 10
4.0
 20
-40.69999999999995
 30
-22.1415898254845
 10
4.0
 20
-40.55
 30
-22.1415898254845
  0
ARC
  5
27E
330
26F
100
AcDbEntity
  8
Livello 01
 62
   250
420
  3355443
100
AcDbCircle
 10
0.0000000000000462
 20
0.0000000000002238
 30
40.55
 40
22.50000000000018
210
0.0
220
-1.0
230
0.0
100
AcDbArc
 50
280.240348321186
 51
309.296480239187
  0
SPLINE
  5
27F
330
26F
100
AcDbEntity
  8
Livello 01
 62
   250
420
  3355443
100
AcDbSpline
210
0.0
220
0.0
230
1.0
 70
    24
 71
     2
 72
     6
 73
     3
 74
     0
 42
0.0000000001
 43
0.0000000001
 40
0.0
 40
0.0
 40
0.0
 40
4.5
 40
4.5
 40
4.5
 10
16.95
 20
-43.25
 30
-14.7968746700106
 10
16.95
 20
-45.5
 30
-14.7968746700106
 10
16.95
 20
-47.75
 30
-14.7968746700106
  0
SPLINE
  5
280
330
26F
100
AcDbEntity
  8
Livello 01
 62
   250
420
  3355443
100
AcDbSpline
210
0.0
220
0.0
230
1.0
 70
    24
 71
     2
 72
     6
 73
     3
 74
     0
 42
0.0000000001
 43
0.0000000001
 40
-6.828551350256099
 40
-6.828551350256099
 40
-6.828551350256099
 40
0.0
 40
0.0
 40
0.0
 10
6.0
 20
-51.45
 30
13.5
 10
6.0
 20
-51.45
 30
16.91427567512805
 10
6.0
 20
-51.45
 30
20.3285513502561
  0
SPLINE
  5
281
330
26F
100
AcDbEntity
  8
Livello 01
 62
   250
420
  3355443
100
AcDbSpline
210
0.0
220
0.0
230
1.0
 70
    24
 71
     2
 72
     6
 73
     3
 74
     0
 42
0.0000000001
 43
0.0000000001
 40
-12.0
 40
-12.0
 40
-12.0
 40
0.0
 40
0.0
 40
0.0
 10
18.0
 20
-51.45
 30
13.5
 10
12.0
 20
-51.45
 30
13.5
 10
6.0
 20
-51.45
 30
13.5
  0
ARC
  5
282
330
26F
100
AcDbEntity
  8
Livello 01
 62
   250
420
  3355443
100
AcDbCircle
 10
0.0
 20
0.0
 30
-40.55
 40
4.0
210
0.0
220
1.0
230
0.0
100
AcDbArc
 50
270.0
 51
0.0000000000000105
  0
LINE
  5
283
330
26F
100
AcDbEntity
  8
Livello 01
 62
   250
420
  3355443
100
AcDbLine
 10
0.0
 20
-39.96061584566776
 30
-4.0
 11
0.0
 21
-40.55
 31
-4.0
  0
ARC
  5
284
330
26F
100
AcDbEntity
  8
Livello 01
 62
   250
420
  3355443
100
AcDbCircle
 10
0.0
 20
0.0
 30
-40.55
 40
4.0
210
0.0
220
1.0
230
0.0
100
AcDbArc
 50
0.0000000000000105
 51
270.0
  0
ARC
  5
285
330
26F
100
AcDbEntity
  8
Livello 01
 62
   250
420
  3355443
100
AcDbCircle
 10
-0.0000000000001279
 20
-0.0000000000002558
 30
49.2503333185199
 40
22.50000000000028
210
0.0
220
-1.0
230
0.0
100
AcDbArc
 50
50.53879882740852
 51
70.99919763708611
  0
SPLINE
  5
286
330
26F
100
AcDbEntity
  8
Livello 01
 62
   250
420
  3355443
100
AcDbSpline
210
0.0
220
0.0
230
1.0
 70
    24
 71
     2
 72
     6
 73
     3
 74
     0
 42
0.0000000001
 43
0.0000000001
 40
0.0
 40
0.0
 40
0.0
 40
2.199666681480103
 40
2.199666681480103
 40
2.199666681480103
 10
7.32558139534883
 20
-49.2503333185199
 30
21.2740653665471
 10
7.325581395348834
 20
-50.35016665925995
 30
21.2740653665471
 10
7.32558139534884
 20
-51.45
 30
21.2740653665471
  0
ARC
  5
287
330
26F
100
AcDbEntity
  8
Livello 01
 62
   250
420
  3355443
100
AcDbCircle
 10
-0.000000000000016
 20
0.0000000000000107
 30
-51.45
 40
22.49999999999998
210
0.0
220
1.0
230
0.0
100
AcDbArc
 50
109.0008023629138
 51
143.130102354156
  0
SPLINE
  5
288
330
26F
100
AcDbEntity
  8
Livello 01
 62
   250
420
  3355443
100
AcDbSpline
210
0.0
220
0.0
230
1.0
 70
    24
 71
     2
 72
     6
 73
     3
 74
     0
 42
0.0000000001
 43
0.0000000001
 40
0.0
 40
0.0
 40
0.0
 40
11.89999999999991
 40
11.89999999999991
 40
11.89999999999991
 10
18.0
 20
-51.45
 30
13.5
 10
18.0000000000001
 20
-45.50000000000005
 30
13.49999999999985
 10
18.0000000000002
 20
-39.5500000000001
 30
13.4999999999997
  0
ARC
  5
289
330
26F
100
AcDbEntity
  8
Livello 01
 62
   250
420
  3355443
100
AcDbCircle
 10
0.0000000000000036
 20
-0.000000000000032
 30
39.55000000000015
 40
22.5
210
0.0
220
-1.0
230
0.0
100
AcDbArc
 50
36.86989764584317
 51
143.1301023541568
  0
SPLINE
  5
28A
330
26F
100
AcDbEntity
  8
Livello 01
 62
   250
420
  3355443
100
AcDbSpline
210
0.0
220
0.0
230
1.0
 70
    24
 71
     2
 72
     6
 73
     3
 74
     0
 42
0.0000000001
 43
0.0000000001
 40
0.0
 40
0.0
 40
0.0
 40
11.89999999999991
 40
11.89999999999991
 40
11.89999999999991
 10
-18.0000000000002
 20
-39.5500000000001
 30
13.4999999999997
 10
-18.0000000000001
 20
-45.50000000000005
 30
13.49999999999985
 10
-18.0
 20
-51.45
 30
13.5
  0
ARC
  5
28B
330
26F
100
AcDbEntity
  8
Livello 01
 62
   250
420
  3355443
100
AcDbCircle
 10
0.0000000000000719
 20
0.0000000000000853
 30
-51.45
 40
22.49999999999989
210
0.0
220
1.0
230
0.0
100
AcDbArc
 50
36.86989764584396
 51
70.99919763708628
  0
SPLINE
  5
28C
330
26F
100
AcDbEntity
  8
Livello 01
 62
   250
420
  3355443
100
AcDbSpline
210
0.0
220
0.0
230
1.0
 70
    24
 71
     2
 72
     6
 73
     3
 74
     0
 42
0.0000000001
 43
0.0000000001
 40
0.0
 40
0.0
 40
0.0
 40
2.199666681480103
 40
2.199666681480103
 40
2.199666681480103
 10
-7.32558139534884
 20
-51.45
 30
21.2740653665471
 10
-7.32558139534884
 20
-50.35016665925995
 30
21.2740653665471
 10
-7.32558139534884
 20
-49.2503333185199
 30
21.2740653665471
  0
ARC
  5
28D
330
26F
100
AcDbEntity
  8
Livello 01
 62
   250
420
  3355443
100
AcDbCircle
 10
-0.0000000000001563
 20
0.0000000000002771
 30
49.2503333185199
 40
22.49999999999968
210
0.0
220
-1.0
230
0.0
100
AcDbArc
 50
109.0008023629137
 51
129.4612011725918
  0
SPLINE
  5
28E
330
26F
100
AcDbEntity
  8
Livello 01
 62
   250
420
  3355443
100
AcDbSpline
 70
     0
 71
     3
 72
     9
 73
     5
 74
     0
 42
0.0000000001
 43
0.0000000001
 40
0.0
 40
0.0
 40
0.0
 40
0.0
 40
1.452715282729254
 40
2.905430565458518
 40
2.905430565458518
 40
2.905430565458518
 40
2.905430565458518
 10
-14.3000000000002
 20
-49.2503333185199
 30
17.3712406004866
 10
-14.6586504620249
 20
-49.2503333185199
 30
17.0759996487949
 10
-15.3496456793064
 20
-49.0209609975992
 30
16.4665100674227
 10
-15.8000000000002
 20
-48.218478867849
 30
16.019051157918
 10
-15.8000000000002
 20
-47.7503333185199
 30
16.019051157918
  0
SPLINE
  5
28F
330
26F
100
AcDbEntity
  8
Livello 01
 62
   250
420
  3355443
100
AcDbSpline
210
0.0
220
0.0
230
1.0
 70
    24
 71
     2
 72
     6
 73
     3
 74
     0
 42
0.0000000001
 43
0.0000000001
 40
0.0
 40
0.0
 40
0.0
 40
4.5003333185199
 40
4.5003333185199
 40
4.5003333185199
 10
-15.8000000000002
 20
-47.7503333185199
 30
16.019051157918
 10
-15.8000000000002
 20
-45.50016665925995
 30
16.019051157918
 10
-15.8000000000002
 20
-43.25
 30
16.019051157918
  0
SPLINE
  5
290
330
26F
100
AcDbEntity
  8
Livello 01
 62
   250
420
  3355443
100
AcDbSpline
 70
     0
 71
     3
 72
    10
 73
     6
 74
     0
 42
0.0000000001
 43
0.0000000001
 40
0.0
 40
0.0
 40
0.0
 40
0.0
 40
0.7097728947572811
 40
1.419545789514562
 40
2.839091579029124
 40
2.839091579029124
 40
2.839091579029124
 40
2.839091579029124
 10
-15.8000000000002
 20
-43.25
 30
16.019051157918
 10
-15.8000000000002
 20
-43.0156431208544
 30
16.019051157918
 10
-15.6847894459094
 20
-42.5607498960879
 30
16.1334817439776
 10
-15.1743210415388
 20
-41.9307114805851
 30
16.6211823493666
 10
-14.6587989622169
 20
-41.75
 30
17.0758774034818
 10
-14.3000000000002
 20
-41.75
 30
17.3712406004866
  0
ARC
  5
291
330
26F
100
AcDbEntity
  8
Livello 01
 62
   250
420
  3355443
100
AcDbCircle
 10
0.0000000000000009
 20
-0.0000000000000338
 30
-41.74999999999998
 40
22.50000000000002
210
0.0
220
1.0
230
0.0
100
AcDbArc
 50
50.53879882740842
 51
129.4612011725916
  0
SPLINE
  5
292
330
26F
100
AcDbEntity
  8
Livello 01
 62
   250
420
  3355443
100
AcDbSpline
 70
     0
 71
     3
 72
     9
 73
     5
 74
     0
 42
0.0000000001
 43
0.0000000001
 40
0.0
 40
0.0
 40
0.0
 40
0.0
 40
1.45271528272921
 40
2.905430565458474
 40
2.905430565458474
 40
2.905430565458474
 40
2.905430565458474
 10
14.3000000000002
 20
-41.7500000000001
 30
17.3712406004866
 10
14.65865046202489
 20
-41.75000000000005
 30
17.0759996487949
 10
15.34964567930639
 20
-41.97937232092075
 30
16.46651006742271
 10
15.8000000000002
 20
-42.78185445067091
 30
16.019051157918
 10
15.8000000000002
 20
-43.25
 30
16.019051157918
  0
SPLINE
  5
293
330
26F
100
AcDbEntity
  8
Livello 01
 62
   250
420
  3355443
100
AcDbSpline
210
0.0
220
0.0
230
1.0
 70
    24
 71
     2
 72
     6
 73
     3
 74
     0
 42
0.0000000001
 43
0.0000000001
 40
0.0
 40
0.0
 40
0.0
 40
4.5003333185199
 40
4.5003333185199
 40
4.5003333185199
 10
15.8000000000002
 20
-43.25
 30
16.019051157918
 10
15.8000000000002
 20
-45.50016665925995
 30
16.019051157918
 10
15.8000000000002
 20
-47.7503333185199
 30
16.019051157918
  0
SPLINE
  5
294
330
26F
100
AcDbEntity
  8
Livello 01
 62
   250
420
  3355443
100
AcDbSpline
 70
     0
 71
     3
 72
    10
 73
     6
 74
     0
 42
0.0000000001
 43
0.0000000001
 40
0.0
 40
0.0
 40
0.0
 40
0.0
 40
0.7097728947572813
 40
1.419545789514562
 40
2.839091579029124
 40
2.839091579029124
 40
2.839091579029124
 40
2.839091579029124
 10
15.8000000000002
 20
-47.7503333185199
 30
16.019051157918
 10
15.8000000000002
 20
-47.9846901976655
 30
16.019051157918
 10
15.6847894459094
 20
-48.4395834224319
 30
16.1334817439775
 10
15.1743210415388
 20
-49.0696218379348
 30
16.6211823493666
 10
14.6587989622169
 20
-49.2503333185199
 30
17.0758774034818
 10
14.3000000000002
 20
-49.2503333185199
 30
17.3712406004866
  0
SPLINE
  5
295
330
26F
100
AcDbEntity
  8
Livello 01
 62
   250
420
  3355443
100
AcDbSpline
210
0.0
220
0.0
230
1.0
 70
    24
 71
     2
 72
     6
 73
     3
 74
     0
 42
0.0000000001
 43
0.0000000001
 40
-36.0000000000004
 40
-36.0000000000004
 40
-36.0000000000004
 40
0.0
 40
0.0
 40
0.0
 10
-18.0000000000002
 20
-39.5500000000001
 30
13.4999999999997
 10
0.0
 20
-39.5500000000001
 30
13.4999999999997
 10
18.0000000000002
 20
-39.5500000000001
 30
13.4999999999997
  0
SPLINE
  5
296
330
26F
100
AcDbEntity
  8
Livello 01
 62
   250
420
  3355443
100
AcDbSpline
210
0.0
220
0.0
230
1.0
 70
    24
 71
     2
 72
     6
 73
     3
 74
     0
 42
0.0000000001
 43
0.0000000001
 40
-6.828551350256099
 40
-6.828551350256099
 40
-6.828551350256099
 40
0.0
 40
0.0
 40
0.0
 10
-6.00000000000001
 20
-51.45
 30
20.3285513502561
 10
-6.000000000000005
 20
-51.45
 30
16.91427567512805
 10
-6.0
 20
-51.45
 30
13.5
  0
SPLINE
  5
297
330
26F
100
AcDbEntity
  8
Livello 01
 62
   250
420
  3355443
100
AcDbSpline
210
0.0
220
0.0
230
1.0
 70
    24
 71
     2
 72
     6
 73
     3
 74
     0
 42
0.0000000001
 43
0.0000000001
 40
-12.0
 40
-12.0
 40
-12.0
 40
0.0
 40
0.0
 40
0.0
 10
-6.0
 20
-51.45
 30
13.5
 10
-12.0
 20
-51.45
 30
13.5
 10
-18.0
 20
-51.45
 30
13.5
  0
SPLINE
  5
298
330
26F
100
AcDbEntity
  8
Livello 01
 62
   250
420
  3355443
100
AcDbSpline
210
0.0
220
0.0
230
1.0
 70
    24
 71
     2
 72
     6
 73
     3
 74
     0
 42
0.0000000001
 43
0.0000000001
 40
-28.5
 40
-28.5
 40
-28.5
 40
0.0
 40
0.0
 40
0.0
 10
14.25
 20
-40.55
 30
13.5
 10
0.0
 20
-40.55
 30
13.5
 10
-14.25
 20
-40.55
 30
13.5
  0
SPLINE
  5
299
330
26F
100
AcDbEntity
  8
Livello 01
 62
   250
420
  3355443
100
AcDbSpline
210
0.0
220
0.0
230
1.0
 70
    24
 71
     2
 72
     6
 73
     3
 74
     0
 42
0.0000000001
 43
0.0000000001
 40
-30.9122801493659
 40
-30.9122801493659
 40
-30.9122801493659
 40
0.0
 40
0.0
 40
0.0
 10
14.25
 20
-40.55
 30
-17.4122801493659
 10
14.25
 20
-40.55
 30
-1.956140074682949
 10
14.25
 20
-40.55
 30
13.5
  0
SPLINE
  5
29A
330
26F
100
AcDbEntity
  8
Livello 01
 62
   250
420
  3355443
100
AcDbSpline
210
0.0
220
0.0
230
1.0
 70
    24
 71
     2
 72
     6
 73
     3
 74
     0
 42
0.0000000001
 43
0.0000000001
 40
-2.141589825484498
 40
-2.141589825484498
 40
-2.141589825484498
 40
0.0
 40
0.0
 40
0.0
 10
4.0
 20
-40.55
 30
-20.0
 10
4.0
 20
-40.55
 30
-21.07079491274225
 10
4.0
 20
-40.55
 30
-22.1415898254845
  0
SPLINE
  5
29B
330
26F
100
AcDbEntity
  8
Livello 01
 62
   250
420
  3355443
100
AcDbSpline
210
0.0
220
0.0
230
1.0
 70
    24
 71
     2
 72
     6
 73
     3
 74
     0
 42
0.0000000001
 43
0.0000000001
 40
-5.0
 40
-5.0
 40
-5.0
 40
0.0
 40
0.0
 40
0.0
 10
-2.5
 20
-40.55
 30
-18.5
 10
0.0
 20
-40.55
 30
-18.5
 10
2.5
 20
-40.55
 30
-18.5
  0
SPLINE
  5
29C
330
26F
100
AcDbEntity
  8
Livello 01
 62
   250
420
  3355443
100
AcDbSpline
210
0.0
220
0.0
230
1.0
 70
    24
 71
     2
 72
     6
 73
     3
 74
     0
 42
0.0000000001
 43
0.0000000001
 40
-2.141589825484498
 40
-2.141589825484498
 40
-2.141589825484498
 40
0.0
 40
0.0
 40
0.0
 10
-4.0
 20
-40.55
 30
-22.1415898254845
 10
-4.0
 20
-40.55
 30
-21.07079491274225
 10
-4.0
 20
-40.55
 30
-20.0
  0
SPLINE
  5
29D
330
26F
100
AcDbEntity
  8
Livello 01
 62
   250
420
  3355443
100
AcDbSpline
210
0.0
220
0.0
230
1.0
 70
    24
 71
     2
 72
     6
 73
     3
 74
     0
 42
0.0000000001
 43
0.0000000001
 40
-30.9122801493658
 40
-30.9122801493658
 40
-30.9122801493658
 40
0.0
 40
0.0
 40
0.0
 10
-14.25
 20
-40.55
 30
13.5
 10
-14.25
 20
-40.55
 30
-1.956140074682899
 10
-14.25
 20
-40.55
 30
-17.4122801493658
  0
SPLINE
  5
29E
330
26F
100
AcDbEntity
  8
Livello 01
 62
   250
420
  3355443
100
AcDbSpline
210
0.0
220
0.0
230
1.0
 70
    24
 71
     2
 72
     6
 73
     3
 74
     0
 42
0.0000000001
 43
0.0000000001
 40
-8.25
 40
-8.25
 40
-8.25
 40
0.0
 40
0.0
 40
0.0
 10
-14.25
 20
-50.45
 30
13.5
 10
-10.125
 20
-50.45
 30
13.5
 10
-6.0
 20
-50.45
 30
13.5
  0
SPLINE
  5
29F
330
26F
100
AcDbEntity
  8
Livello 01
 62
   250
420
  3355443
100
AcDbSpline
210
0.0
220
0.0
230
1.0
 70
    24
 71
     2
 72
     6
 73
     3
 74
     0
 42
0.0000000001
 43
0.0000000001
 40
-30.9122801493658
 40
-30.9122801493658
 40
-30.9122801493658
 40
0.0
 40
0.0
 40
0.0
 10
-14.25
 20
-50.45
 30
-17.4122801493658
 10
-14.25
 20
-50.45
 30
-1.956140074682899
 10
-14.25
 20
-50.45
 30
13.5
  0
SPLINE
  5
2A0
330
26F
100
AcDbEntity
  8
Livello 01
 62
   250
420
  3355443
100
AcDbSpline
210
0.0
220
0.0
230
1.0
 70
    24
 71
     2
 72
     6
 73
     3
 74
     0
 42
0.0000000001
 43
0.0000000001
 40
-30.9122801493659
 40
-30.9122801493659
 40
-30.9122801493659
 40
0.0
 40
0.0
 40
0.0
 10
14.25
 20
-50.45
 30
13.5
 10
14.25
 20
-50.45
 30
-1.956140074682949
 10
14.25
 20
-50.45
 30
-17.4122801493659
  0
SPLINE
  5
2A1
330
26F
100
AcDbEntity
  8
Livello 01
 62
   250
420
  3355443
100
AcDbSpline
210
0.0
220
0.0
230
1.0
 70
    24
 71
     2
 72
     6
 73
     3
 74
     0
 42
0.0000000001
 43
0.0000000001
 40
-8.25
 40
-8.25
 40
-8.25
 40
0.0
 40
0.0
 40
0.0
 10
6.0
 20
-50.45
 30
13.5
 10
10.125
 20
-50.45
 30
13.5
 10
14.25
 20
-50.45
 30
13.5
  0
SPLINE
  5
2A2
330
26F
100
AcDbEntity
  8
Livello 01
 62
   250
420
  3355443
100
AcDbSpline
210
0.0
220
0.0
230
1.0
 70
    24
 71
     2
 72
     6
 73
     3
 74
     0
 42
0.0000000001
 43
0.0000000001
 40
-17.2
 40
-17.2
 40
-17.2
 40
0.0
 40
0.0
 40
0.0
 10
6.00000000000001
 20
-50.45
 30
-3.7
 10
6.000000000000005
 20
-50.45
 30
4.9
 10
6.0
 20
-50.45
 30
13.5
  0
SPLINE
  5
2A3
330
26F
100
AcDbEntity
  8
Livello 01
 62
   250
420
  3355443
100
AcDbSpline
210
0.0
220
0.0
230
1.0
 70
    24
 71
     2
 72
     6
 73
     3
 74
     0
 42
0.0000000001
 43
0.0000000001
 40
-17.2
 40
-17.2
 40
-17.2
 40
0.0
 40
0.0
 40
0.0
 10
-6.0
 20
-50.45
 30
13.5
 10
-5.999999999999995
 20
-50.45
 30
4.9
 10
-5.99999999999999
 20
-50.45
 30
-3.7
  0
SPLINE
  5
2A4
330
26F
100
AcDbEntity
  8
Livello 01
 62
   250
420
  3355443
100
AcDbSpline
210
0.0
220
0.0
230
1.0
 70
    24
 71
     2
 72
     6
 73
     3
 74
     0
 42
0.0000000001
 43
0.0000000001
 40
-1.0
 40
-1.0
 40
-1.0
 40
0.0
 40
0.0
 40
0.0
 10
6.0
 20
-50.45
 30
13.5
 10
6.0
 20
-50.95
 30
13.5
 10
6.0
 20
-51.45
 30
13.5
  0
SPLINE
  5
2A5
330
26F
100
AcDbEntity
  8
Livello 01
 62
   250
420
  3355443
100
AcDbSpline
210
0.0
220
0.0
230
1.0
 70
    24
 71
     2
 72
     6
 73
     3
 74
     0
 42
0.0000000001
 43
0.0000000001
 40
-4.5
 40
-4.5
 40
-4.5
 40
0.0
 40
0.0
 40
0.0
 10
16.95
 20
-43.25
 30
13.5
 10
16.95
 20
-45.5
 30
13.5
 10
16.95
 20
-47.75
 30
13.5
  0
SPLINE
  5
2A6
330
26F
100
AcDbEntity
  8
Livello 01
 62
   250
420
  3355443
100
AcDbSpline
210
0.0
220
0.0
230
1.0
 70
    24
 71
     2
 72
     6
 73
     3
 74
     0
 42
0.0000000001
 43
0.0000000001
 40
-4.5
 40
-4.5
 40
-4.5
 40
0.0
 40
0.0
 40
0.0
 10
-16.95
 20
-47.75
 30
13.5
 10
-16.95
 20
-45.5
 30
13.5
 10
-16.95
 20
-43.25
 30
13.5
  0
SPLINE
  5
2A7
330
26F
100
AcDbEntity
  8
Livello 01
 62
   250
420
  3355443
100
AcDbSpline
210
0.0
220
0.0
230
1.0
 70
    24
 71
     2
 72
     6
 73
     3
 74
     0
 42
0.0000000001
 43
0.0000000001
 40
-1.0
 40
-1.0
 40
-1.0
 40
0.0
 40
0.0
 40
0.0
 10
-6.0
 20
-51.45
 30
13.5
 10
-6.0
 20
-50.95
 30
13.5
 10
-6.0
 20
-50.45
 30
13.5
  0
SPLINE
  5
2A8
330
26F
100
AcDbEntity
  8
Livello 01
 62
   250
420
  3355443
100
AcDbSpline
210
0.0
220
0.0
230
1.0
 70
    24
 71
     2
 72
     6
 73
     3
 74
     0
 42
0.0000000001
 43
0.0000000001
 40
-28.2968746700106
 40
-28.2968746700106
 40
-28.2968746700106
 40
0.0
 40
0.0
 40
0.0
 10
16.95
 20
-47.75
 30
-14.7968746700106
 10
16.95
 20
-47.75
 30
-0.6484373350053003
 10
16.95
 20
-47.75
 30
13.5
  0
SPLINE
  5
2A9
330
26F
100
AcDbEntity
  8
Livello 01
 62
   250
420
  3355443
100
AcDbSpline
210
0.0
220
0.0
230
1.0
 70
    24
 71
     2
 72
     6
 73
     3
 74
     0
 42
0.0000000001
 43
0.0000000001
 40
-28.2968746700106
 40
-28.2968746700106
 40
-28.2968746700106
 40
0.0
 40
0.0
 40
0.0
 10
16.95
 20
-43.25
 30
13.5
 10
16.95
 20
-43.25
 30
-0.6484373350053003
 10
16.95
 20
-43.25
 30
-14.7968746700106
  0
SPLINE
  5
2AA
330
26F
100
AcDbEntity
  8
Livello 01
 62
   250
420
  3355443
100
AcDbSpline
210
0.0
220
0.0
230
1.0
 70
    24
 71
     2
 72
     6
 73
     3
 74
     0
 42
0.0000000001
 43
0.0000000001
 40
-28.2968746700108
 40
-28.2968746700108
 40
-28.2968746700108
 40
0.0
 40
0.0
 40
0.0
 10
-16.95
 20
-47.75
 30
13.5
 10
-16.9499999999999
 20
-47.75
 30
-0.6484373350053998
 10
-16.9499999999998
 20
-47.75
 30
-14.7968746700108
  0
SPLINE
  5
2AB
330
26F
100
AcDbEntity
  8
Livello 01
 62
   250
420
  3355443
100
AcDbSpline
210
0.0
220
0.0
230
1.0
 70
    24
 71
     2
 72
     6
 73
     3
 74
     0
 42
0.0000000001
 43
0.0000000001
 40
-28.2968746700108
 40
-28.2968746700108
 40
-28.2968746700108
 40
0.0
 40
0.0
 40
0.0
 10
-16.9499999999998
 20
-43.25
 30
-14.7968746700108
 10
-16.9499999999999
 20
-43.25
 30
-0.6484373350053998
 10
-16.95
 20
-43.25
 30
13.5
  0
SPLINE
  5
2AC
330
26F
100
AcDbEntity
  8
Livello 01
 62
   250
420
  3355443
100
AcDbSpline
210
0.0
220
0.0
230
1.0
 70
    24
 71
     2
 72
     6
 73
     3
 74
     0
 42
0.0000000001
 43
0.0000000001
 40
-32.038102315836
 40
-32.038102315836
 40
-32.038102315836
 40
0.0
 40
0.0
 40
0.0
 10
15.8000000000002
 20
-43.25
 30
16.019051157918
 10
15.8000000000002
 20
-43.25
 30
0.0
 10
15.8000000000002
 20
-43.25
 30
-16.019051157918
  0
SPLINE
  5
2AD
330
26F
100
AcDbEntity
  8
Livello 01
 62
   250
420
  3355443
100
AcDbSpline
210
0.0
220
0.0
230
1.0
 70
    24
 71
     2
 72
     6
 73
     3
 74
     0
 42
0.0000000001
 43
0.0000000001
 40
-34.7424812009732
 40
-34.7424812009732
 40
-34.7424812009732
 40
0.0
 40
0.0
 40
0.0
 10
14.3000000000002
 20
-41.7500000000001
 30
-17.3712406004866
 10
14.3000000000002
 20
-41.7500000000001
 30
0.0
 10
14.3000000000002
 20
-41.7500000000001
 30
17.3712406004866
  0
SPLINE
  5
2AE
330
26F
100
AcDbEntity
  8
Livello 01
 62
   250
420
  3355443
100
AcDbSpline
210
0.0
220
0.0
230
1.0
 70
    24
 71
     2
 72
     6
 73
     3
 74
     0
 42
0.0000000001
 43
0.0000000001
 40
0.0
 40
0.0
 40
0.0
 40
34.7424812009732
 40
34.7424812009732
 40
34.7424812009732
 10
-14.3000000000002
 20
-41.75
 30
17.3712406004866
 10
-14.3000000000002
 20
-41.75
 30
0.0
 10
-14.3000000000002
 20
-41.75
 30
-17.3712406004866
  0
SPLINE
  5
2AF
330
26F
100
AcDbEntity
  8
Livello 01
 62
   250
420
  3355443
100
AcDbSpline
210
0.0
220
0.0
230
1.0
 70
    24
 71
     2
 72
     6
 73
     3
 74
     0
 42
0.0000000001
 43
0.0000000001
 40
-32.038102315836
 40
-32.038102315836
 40
-32.038102315836
 40
0.0
 40
0.0
 40
0.0
 10
-15.8000000000002
 20
-43.25
 30
-16.019051157918
 10
-15.8000000000002
 20
-43.25
 30
0.0
 10
-15.8000000000002
 20
-43.25
 30
16.019051157918
  0
SPLINE
  5
2B0
330
26F
100
AcDbEntity
  8
Livello 01
 62
   250
420
  3355443
100
AcDbSpline
210
0.0
220
0.0
230
1.0
 70
    24
 71
     2
 72
     6
 73
     3
 74
     0
 42
0.0000000001
 43
0.0000000001
 40
0.0
 40
0.0
 40
0.0
 40
32.038102315836
 40
32.038102315836
 40
32.038102315836
 10
-15.8000000000002
 20
-47.7503333185199
 30
16.019051157918
 10
-15.8000000000002
 20
-47.7503333185199
 30
0.0
 10
-15.8000000000002
 20
-47.7503333185199
 30
-16.019051157918
  0
SPLINE
  5
2B1
330
26F
100
AcDbEntity
  8
Livello 01
 62
   250
420
  3355443
100
AcDbSpline
210
0.0
220
0.0
230
1.0
 70
    24
 71
     2
 72
     6
 73
     3
 74
     0
 42
0.0000000001
 43
0.0000000001
 40
-34.7424812009732
 40
-34.7424812009732
 40
-34.7424812009732
 40
0.0
 40
0.0
 40
0.0
 10
-14.3000000000002
 20
-49.2503333185199
 30
-17.3712406004866
 10
-14.3000000000002
 20
-49.2503333185199
 30
0.0
 10
-14.3000000000002
 20
-49.2503333185199
 30
17.3712406004866
  0
SPLINE
  5
2B2
330
26F
100
AcDbEntity
  8
Livello 01
 62
   250
420
  3355443
100
AcDbSpline
210
0.0
220
0.0
230
1.0
 70
    24
 71
     2
 72
     6
 73
     3
 74
     0
 42
0.0000000001
 43
0.0000000001
 40
0.0
 40
0.0
 40
0.0
 40
24.0285513502561
 40
24.0285513502561
 40
24.0285513502561
 10
6.00000000000001
 20
-49.2503333185199
 30
-3.7
 10
6.000000000000005
 20
-49.2503333185199
 30
8.31427567512805
 10
6.0
 20
-49.2503333185199
 30
20.3285513502561
  0
SPLINE
  5
2B3
330
26F
100
AcDbEntity
  8
Livello 01
 62
   250
420
  3355443
100
AcDbSpline
210
0.0
220
0.0
230
1.0
 70
    24
 71
     2
 72
     6
 73
     3
 74
     0
 42
0.0000000001
 43
0.0000000001
 40
0.0
 40
0.0
 40
0.0
 40
34.7424812009732
 40
34.7424812009732
 40
34.7424812009732
 10
14.3000000000002
 20
-49.2503333185199
 30
17.3712406004866
 10
14.3000000000002
 20
-49.2503333185199
 30
0.0
 10
14.3000000000002
 20
-49.2503333185199
 30
-17.3712406004866
  0
SPLINE
  5
2B4
330
26F
100
AcDbEntity
  8
Livello 01
 62
   250
420
  3355443
100
AcDbSpline
210
0.0
220
0.0
230
1.0
 70
    24
 71
     2
 72
     6
 73
     3
 74
     0
 42
0.0000000001
 43
0.0000000001
 40
0.0
 40
0.0
 40
0.0
 40
24.0285513502561
 40
24.0285513502561
 40
24.0285513502561
 10
-6.0
 20
-49.2503333185199
 30
20.3285513502561
 10
-5.999999999999995
 20
-49.2503333185199
 30
8.31427567512805
 10
-5.99999999999999
 20
-49.2503333185199
 30
-3.7
  0
SPLINE
  5
2B5
330
26F
100
AcDbEntity
  8
Livello 01
 62
   250
420
  3355443
100
AcDbSpline
210
0.0
220
0.0
230
1.0
 70
    24
 71
     2
 72
     6
 73
     3
 74
     0
 42
0.0000000001
 43
0.0000000001
 40
-32.038102315836
 40
-32.038102315836
 40
-32.038102315836
 40
0.0
 40
0.0
 40
0.0
 10
15.8000000000002
 20
-47.7503333185199
 30
-16.019051157918
 10
15.8000000000002
 20
-47.7503333185199
 30
0.0
 10
15.8000000000002
 20
-47.7503333185199
 30
16.019051157918
  0
SPLINE
  5
2B6
330
26F
100
AcDbEntity
  8
Livello 01
 62
   250
420
  3355443
100
AcDbSpline
210
0.0
220
-0.9848077530122081
230
0.1736481776669305
 70
    15
 71
     2
 72
    12
 73
     9
 74
     0
 42
0.0000000001
 43
0.0000000001
 40
-32.24682579017191
 40
-32.24682579017191
 40
-32.24682579017191
 40
-24.18511934262893
 40
-24.18511934262893
 40
-16.12341289508596
 40
-16.12341289508596
 40
-8.061706447542978
 40
-8.061706447542978
 40
0.0
 40
0.0
 40
0.0
 10
0.0
 20
-39.96061584566776
 30
-4.0
 41
1.0
 10
4.0
 20
-39.96061584566776
 30
-3.999999999999999
 41
0.7071067811865475
 10
4.0
 20
-39.2553079228339
 30
0.0
 41
1.0
 10
4.0
 20
-38.55000000000004
 30
3.999999999999999
 41
0.7071067811865475
 10
0.0
 20
-38.55000000000004
 30
4.0
 41
1.0
 10
-4.0
 20
-38.55000000000004
 30
3.999999999999999
 41
0.7071067811865475
 10
-4.0
 20
-39.2553079228339
 30
0.0
 41
1.0
 10
-4.0
 20
-39.96061584566776
 30
-3.999999999999999
 41
0.7071067811865475
 10
0.0
 20
-39.96061584566776
 30
-4.0
 41
1.0
  0
SPLINE
  5
2B7
330
26F
100
AcDbEntity
  8
Livello 01
 62
   250
420
  3355443
100
AcDbSpline
210
0.0
220
0.0
230
1.0
 70
    24
 71
     2
 72
     6
 73
     3
 74
     0
 42
0.0000000001
 43
0.0000000001
 40
-2.199666681480103
 40
-2.199666681480103
 40
-2.199666681480103
 40
0.0
 40
0.0
 40
0.0
 10
6.0
 20
-49.2503333185199
 30
20.3285513502561
 10
6.0
 20
-50.35016665925995
 30
20.3285513502561
 10
6.0
 20
-51.45
 30
20.3285513502561
  0
SPLINE
  5
2B8
330
26F
100
AcDbEntity
  8
Livello 01
 62
   250
420
  3355443
100
AcDbSpline
210
0.0
220
0.0
230
1.0
 70
    24
 71
     2
 72
     6
 73
     3
 74
     0
 42
0.0000000001
 43
0.0000000001
 40
-1.199666681480103
 40
-1.199666681480103
 40
-1.199666681480103
 40
0.0
 40
0.0
 40
0.0
 10
6.00000000000001
 20
-49.2503333185199
 30
-3.7
 10
6.00000000000001
 20
-49.85016665925995
 30
-3.7
 10
6.00000000000001
 20
-50.45
 30
-3.7
  0
ARC
  5
2B9
330
26F
100
AcDbEntity
  8
Livello 01
 62
   250
420
  3355443
100
AcDbCircle
 10
0.0000000000000102
 20
-3.7
 30
49.2503333185199
 40
6.0
210
0.0
220
-1.0
230
0.0
100
AcDbArc
 50
180.0
 51
0.0
  0
SPLINE
  5
2BA
330
26F
100
AcDbEntity
  8
Livello 01
 62
   250
420
  3355443
100
AcDbSpline
210
0.0
220
0.0
230
1.0
 70
    24
 71
     2
 72
     6
 73
     3
 74
     0
 42
0.0000000001
 43
0.0000000001
 40
-1.199666681480103
 40
-1.199666681480103
 40
-1.199666681480103
 40
0.0
 40
0.0
 40
0.0
 10
-5.99999999999999
 20
-50.45
 30
-3.7
 10
-5.99999999999999
 20
-49.85016665925995
 30
-3.7
 10
-5.99999999999999
 20
-49.2503333185199
 30
-3.7
  0
ARC
  5
2BB
330
26F
100
AcDbEntity
  8
Livello 01
 62
   250
420
  3355443
100
AcDbCircle
 10
0.0000000000000102
 20
-3.7
 30
50.45
 40
6.0
210
0.0
220
-1.0
230
0.0
100
AcDbArc
 50
180.0
 51
0.0
  0
SPLINE
  5
2BC
330
26F
100
AcDbEntity
  8
Livello 01
 62
   250
420
  3355443
100
AcDbSpline
210
0.0
220
0.0
230
1.0
 70
    24
 71
     2
 72
     6
 73
     3
 74
     0
 42
0.0000000001
 43
0.0000000001
 40
-2.199666681480103
 40
-2.199666681480103
 40
-2.199666681480103
 40
0.0
 40
0.0
 40
0.0
 10
-6.00000000000001
 20
-51.45
 30
20.3285513502561
 10
-6.000000000000005
 20
-50.35016665925995
 30
20.3285513502561
 10
-6.0
 20
-49.2503333185199
 30
20.3285513502561
  0
ARC
  5
2BD
330
26F
100
AcDbEntity
  8
Livello 01
 62
   250
420
  3355443
100
AcDbCircle
 10
7.000000000000015
 20
20.32855135025611
 30
-51.45
 40
1.000000000000006
210
0.0
220
1.0
230
0.0
100
AcDbArc
 50
70.99919763708708
 51
180.0000000000004
  0
ARC
  5
2BE
330
26F
100
AcDbEntity
  8
Livello 01
 62
   250
420
  3355443
100
AcDbCircle
 10
7.000000000000013
 20
20.3285513502561
 30
-49.2503333185199
 40
1.000000000000013
210
0.0
220
1.0
230
0.0
100
AcDbArc
 50
70.99919763708711
 51
180.0
  0
ARC
  5
2BF
330
26F
100
AcDbEntity
  8
Livello 01
 62
   250
420
  3355443
100
AcDbCircle
 10
-7.000000000000012
 20
20.3285513502561
 30
-49.2503333185199
 40
1.000000000000012
210
0.0
220
1.0
230
0.0
100
AcDbArc
 50
0.0
 51
109.0008023629125
  0
ARC
  5
2C0
330
26F
100
AcDbEntity
  8
Livello 01
 62
   250
420
  3355443
100
AcDbCircle
 10
-7.000000000000013
 20
20.3285513502561
 30
-51.45
 40
1.000000000000013
210
0.0
220
1.0
230
0.0
100
AcDbArc
 50
0.0
 51
109.0008023629129
  0
SPLINE
  5
2C1
330
26F
100
AcDbEntity
  8
Livello 01
 62
   250
420
  3355443
100
AcDbSpline
210
0.0
220
0.0
230
1.0
 70
    24
 71
     2
 72
     6
 73
     3
 74
     0
 42
0.0000000001
 43
0.0000000001
 40
0.0
 40
0.0
 40
0.0
 40
5.0
 40
5.0
 40
5.0
 10
-2.5
 20
-40.85
 30
-18.5
 10
0.0
 20
-40.85
 30
-18.5
 10
2.5
 20
-40.85
 30
-18.5
  0
SPLINE
  5
2C2
330
26F
100
AcDbEntity
  8
Livello 01
 62
   250
420
  3355443
100
AcDbSpline
210
0.0
220
0.0
230
1.0
 70
    24
 71
     2
 72
     6
 73
     3
 74
     0
 42
0.0000000001
 43
0.0000000001
 40
0.0
 40
0.0
 40
0.0
 40
2.141589825484498
 40
2.141589825484498
 40
2.141589825484498
 10
4.0
 20
-40.85
 30
-20.0
 10
4.0
 20
-40.84999999999995
 30
-21.07079491274225
 10
4.0
 20
-40.8499999999999
 30
-22.1415898254845
  0
SPLINE
  5
2C3
330
26F
100
AcDbEntity
  8
Livello 01
 62
   250
420
  3355443
100
AcDbSpline
210
0.0
220
0.0
230
1.0
 70
    24
 71
     2
 72
     6
 73
     3
 74
     0
 42
0.0000000001
 43
0.0000000001
 40
0.0
 40
0.0
 40
0.0
 40
2.141589825484498
 40
2.141589825484498
 40
2.141589825484498
 10
-4.0
 20
-40.8499999999999
 30
-22.1415898254845
 10
-4.0
 20
-40.84999999999995
 30
-21.07079491274225
 10
-4.0
 20
-40.85
 30
-20.0
  0
SPLINE
  5
2C4
330
26F
100
AcDbEntity
  8
Livello 01
 62
   250
420
  3355443
100
AcDbSpline
210
0.0
220
0.0
230
1.0
 70
    24
 71
     2
 72
     6
 73
     3
 74
     0
 42
0.0000000001
 43
0.0000000001
 40
0.0
 40
0.0
 40
0.0
 40
0.3000000000000043
 40
0.3000000000000043
 40
0.3000000000000043
 10
4.0
 20
-40.85
 30
-20.0
 10
4.0
 20
-40.7
 30
-20.0
 10
4.0
 20
-40.55
 30
-20.0
  0
SPLINE
  5
2C5
330
26F
100
AcDbEntity
  8
Livello 01
 62
   250
420
  3355443
100
AcDbSpline
210
0.0
220
0.0
230
1.0
 70
    24
 71
     2
 72
     6
 73
     3
 74
     0
 42
0.0000000001
 43
0.0000000001
 40
0.0
 40
0.0
 40
0.0
 40
0.3000000000000043
 40
0.3000000000000043
 40
0.3000000000000043
 10
-4.0
 20
-40.55
 30
-20.0
 10
-4.0
 20
-40.7
 30
-20.0
 10
-4.0
 20
-40.85
 30
-20.0
  0
SPLINE
  5
2C6
330
26F
100
AcDbEntity
  8
Livello 01
 62
   250
420
  3355443
100
AcDbSpline
210
0.0
220
0.0
230
1.0
 70
    24
 71
     2
 72
     6
 73
     3
 74
     0
 42
0.0000000001
 43
0.0000000001
 40
-0.3000000000000043
 40
-0.3000000000000043
 40
-0.3000000000000043
 40
0.0
 40
0.0
 40
0.0
 10
2.5
 20
-40.85
 30
-18.5
 10
2.5
 20
-40.7
 30
-18.5
 10
2.5
 20
-40.55
 30
-18.5
  0
SPLINE
  5
2C7
330
26F
100
AcDbEntity
  8
Livello 01
 62
   250
420
  3355443
100
AcDbSpline
210
0.0
220
0.0
230
1.0
 70
    24
 71
     2
 72
     6
 73
     3
 74
     0
 42
0.0000000001
 43
0.0000000001
 40
-0.3000000000000043
 40
-0.3000000000000043
 40
-0.3000000000000043
 40
0.0
 40
0.0
 40
0.0
 10
-2.5
 20
-40.55
 30
-18.5
 10
-2.5
 20
-40.7
 30
-18.5
 10
-2.5
 20
-40.85
 30
-18.5
  0
SPLINE
  5
2C8
330
26F
100
AcDbEntity
  8
Livello 01
 62
   250
420
  3355443
100
AcDbSpline
 70
     0
 71
     3
 72
    11
 73
     7
 74
     0
 42
0.0000000001
 43
0.0000000001
 40
-5.162807494929086
 40
-5.162807494929086
 40
-5.162807494929086
 40
-5.162807494929086
 40
-3.872105621196877
 40
-2.581403747464585
 40
-1.290701873732292
 40
0.0
 40
0.0
 40
0.0
 40
0.0
 10
-16.9499999999998
 20
-43.25
 30
-14.7968746700108
 10
-16.94999999999986
 20
-42.82046373564071
 30
-14.79687467001076
 10
-16.73667065512668
 20
-42.00229562589853
 30
-15.04431942923476
 10
-16.05959227795953
 20
-41.16473597073124
 30
-15.77190788145077
 10
-15.21860243521897
 20
-40.66970068970891
 30
-16.58754650920229
 10
-14.57961217945579
 20
-40.55
 30
-17.142529518377
 10
-14.25
 20
-40.55
 30
-17.4122801493658
  0
ARC
  5
2C9
330
26F
100
AcDbEntity
  8
Livello 01
 62
   250
420
  3355443
100
AcDbCircle
 10
14.25
 20
-43.25
 30
-13.5
 40
2.7
210
0.0
220
0.0
230
-1.0
100
AcDbArc
 50
0.0
 51
90.0
  0
SPLINE
  5
2CA
330
26F
100
AcDbEntity
  8
Livello 01
 62
   250
420
  3355443
100
AcDbSpline
 70
     0
 71
     3
 72
    11
 73
     7
 74
     0
 42
0.0000000001
 43
0.0000000001
 40
-5.162918769359507
 40
-5.162918769359507
 40
-5.162918769359507
 40
-5.162918769359507
 40
-3.872189077019626
 40
-2.581459384679751
 40
-1.290729692339875
 40
0.0
 40
0.0
 40
0.0
 40
0.0
 10
14.25
 20
-40.55
 30
-17.4122801493659
 10
14.5797176219435
 20
-40.55
 30
-17.1424432255172
 10
15.2153112276258
 20
-40.6688095726497
 30
-16.5904613244047
 10
16.0567482373945
 20
-41.1625292298452
 30
-15.7748474107153
 10
16.7348343140896
 20
-41.9975307704185
 30
-15.0464041393541
 10
16.95
 20
-42.8203900853707
 30
-14.7968746700106
 10
16.95
 20
-43.25
 30
-14.7968746700106
  0
ARC
  5
2CB
330
26F
100
AcDbEntity
  8
Livello 01
 62
   250
420
  3355443
100
AcDbCircle
 10
-14.25
 20
-43.25
 30
-13.5
 40
2.7
210
0.0
220
0.0
230
-1.0
100
AcDbArc
 50
90.0
 51
180.0
  0
SPLINE
  5
2CC
330
26F
100
AcDbEntity
  8
Livello 01
 62
   250
420
  3355443
100
AcDbSpline
 70
     0
 71
     3
 72
    11
 73
     7
 74
     0
 42
0.0000000001
 43
0.0000000001
 40
-5.16280749492918
 40
-5.16280749492918
 40
-5.16280749492918
 40
-5.16280749492918
 40
-3.872105621196884
 40
-2.581403747464589
 40
-1.290701873732294
 40
0.0
 40
0.0
 40
0.0
 40
0.0
 10
16.95
 20
-47.75
 30
-14.7968746700106
 10
16.95
 20
-48.1795362643593
 30
-14.7968746700106
 10
16.7366706551267
 20
-48.9977043741015
 30
-15.044319429235
 10
16.0595922779595
 20
-49.8352640292688
 30
-15.7719078814508
 10
15.2186024352189
 20
-50.3302993102911
 30
-16.5875465092024
 10
14.5796121794558
 20
-50.45
 30
-17.1425295183771
 10
14.25
 20
-50.45
 30
-17.4122801493659
  0
ARC
  5
2CD
330
26F
100
AcDbEntity
  8
Livello 01
 62
   250
420
  3355443
100
AcDbCircle
 10
-14.25
 20
-47.75
 30
-13.5
 40
2.7
210
0.0
220
0.0
230
-1.0
100
AcDbArc
 50
180.0
 51
270.0
  0
SPLINE
  5
2CE
330
26F
100
AcDbEntity
  8
Livello 01
 62
   250
420
  3355443
100
AcDbSpline
 70
     0
 71
     3
 72
    11
 73
     7
 74
     0
 42
0.0000000001
 43
0.0000000001
 40
-5.162918769359313
 40
-5.162918769359313
 40
-5.162918769359313
 40
-5.162918769359313
 40
-3.87218907701944
 40
-2.581459384679567
 40
-1.290729692339704
 40
0.0
 40
0.0
 40
0.0
 40
0.0
 10
-14.25
 20
-50.45
 30
-17.4122801493658
 10
-14.5797176219436
 20
-50.44999999999999
 30
-17.14244322551721
 10
-15.21531122762588
 20
-50.33119042735034
 30
-16.59046132440464
 10
-16.05674823739447
 20
-49.83747077015478
 30
-15.77484741071538
 10
-16.73483431408952
 20
-49.00246922958145
 30
-15.04640413935427
 10
-16.94999999999991
 20
-48.17960991462928
 30
-14.79687467001069
 10
-16.9499999999998
 20
-47.75
 30
-14.7968746700108
  0
ARC
  5
2CF
330
26F
100
AcDbEntity
  8
Livello 01
 62
   250
420
  3355443
100
AcDbCircle
 10
14.25
 20
-47.75
 30
-13.5
 40
2.7
210
0.0
220
0.0
230
-1.0
100
AcDbArc
 50
270.0
 51
0.0
  0
ARC
  5
2D0
330
26F
100
AcDbEntity
  8
Livello 01
 62
   250
420
  3355443
100
AcDbCircle
 10
2.5
 20
-20.0
 30
-40.55
 40
1.5
210
0.0
220
1.0
230
0.0
100
AcDbArc
 50
0.0
 51
90.0
  0
ARC
  5
2D1
330
26F
100
AcDbEntity
  8
Livello 01
 62
   250
420
  3355443
100
AcDbCircle
 10
2.5
 20
-20.0
 30
-40.85
 40
1.5
210
0.0
220
1.0
230
0.0
100
AcDbArc
 50
0.0
 51
90.0
  0
ARC
  5
2D2
330
26F
100
AcDbEntity
  8
Livello 01
 62
   250
420
  3355443
100
AcDbCircle
 10
-2.5
 20
-20.0
 30
-40.85
 40
1.5
210
0.0
220
1.0
230
0.0
100
AcDbArc
 50
90.0
 51
180.0
  0
ARC
  5
2D3
330
26F
100
AcDbEntity
  8
Livello 01
 62
   250
420
  3355443
100
AcDbCircle
 10
-2.5
 20
-20.0
 30
-40.55
 40
1.5
210
0.0
220
1.0
230
0.0
100
AcDbArc
 50
90.0
 51
180.0
  0
ARC
  5
2D4
330
26F
100
AcDbEntity
  8
Livello 01
 62
   250
420
  3355443
100
AcDbCircle
 10
0.0
 20
0.0
 30
-45.5
 40
22.5
210
0.0
220
1.0
230
0.0
100
AcDbArc
 50
221.120047553236
 51
225.3944337785715
  0
ARC
  5
2D5
330
26F
100
AcDbEntity
  8
Livello 01
 62
   250
420
  3355443
100
AcDbCircle
 10
0.0
 20
0.0
 30
-45.5
 40
22.5
210
0.0
220
1.0
230
0.0
100
AcDbArc
 50
314.6055662214285
 51
318.8799524467634
  0
LINE
  5
2D6
330
26F
100
AcDbEntity
  8
Livello 01
 62
   250
420
  3355443
100
AcDbLine
 10
0.0
 20
-50.45
 30
-22.5
 11
0.0
 21
-49.2503333185199
 31
-22.5
  0
LINE
  5
2D7
330
26F
100
AcDbEntity
  8
Livello 01
 62
   250
420
  3355443
100
AcDbLine
 10
0.0
 20
-41.75000000000005
 30
-22.5
 11
0.0
 21
-40.84999999999989
 31
-22.5
  0
LINE
  5
2D8
330
26F
100
AcDbEntity
  8
Livello 01
 62
   250
420
  3355443
100
AcDbLine
 10
12.0
 20
-51.45
 30
13.5
 11
12.0
 21
-51.45
 31
19.03286631067428
  0
LINE
  5
2D9
330
26F
100
AcDbEntity
  8
Livello 01
 62
   250
420
  3355443
100
AcDbLine
 10
6.0
 20
-51.45
 30
17.47087612305095
 11
14.17809886737317
 21
-51.45
 31
17.47087612305095
  0
ARC
  5
2DA
330
26F
100
AcDbEntity
  8
Livello 01
 62
   250
420
  3355443
100
AcDbCircle
 10
0.0
 20
0.0
 30
39.55000000000002
 40
4.0
210
0.0
220
-1.0
230
0.0
100
AcDbArc
 50
335.3619532137968
 51
204.6380467862032
  0
LINE
  5
2DB
330
26F
100
AcDbEntity
  8
Livello 01
 62
   250
420
  3355443
100
AcDbLine
 10
4.0
 20
-39.2553079228339
 30
0.0
 11
4.0
 21
-40.55
 31
0.0
  0
LINE
  5
2DC
330
26F
100
AcDbEntity
  8
Livello 01
 62
   250
420
  3355443
100
AcDbLine
 10
0.0
 20
-38.55000000000004
 30
4.0
 11
0.0
 21
-40.55
 31
4.0
  0
LINE
  5
2DD
330
26F
100
AcDbEntity
  8
Livello 01
 62
   250
420
  3355443
100
AcDbLine
 10
-4.0
 20
-39.2553079228339
 30
0.0
 11
-4.0
 21
-40.55
 31
0.0
  0
ARC
  5
2DE
330
26F
100
AcDbEntity
  8
Livello 01
 62
   250
420
  3355443
100
AcDbCircle
 10
0.0
 20
0.0
 30
-45.50000000000011
 40
22.5
210
0.0
220
1.0
230
0.0
100
AcDbArc
 50
36.86989764584355
 51
45.39443377857148
  0
ARC
  5
2DF
330
26F
100
AcDbEntity
  8
Livello 01
 62
   250
420
  3355443
100
AcDbCircle
 10
0.0
 20
0.0
 30
-45.50000000000011
 40
22.5
210
0.0
220
1.0
230
0.0
100
AcDbArc
 50
134.6055662214285
 51
143.1301023541564
  0
LINE
  5
2E0
330
26F
100
AcDbEntity
  8
Livello 01
 62
   250
420
  3355443
100
AcDbLine
 10
0.0
 20
-41.75000000000005
 30
22.5
 11
0.0
 21
-39.5500000000001
 31
22.5
  0
LINE
  5
2E1
330
26F
100
AcDbEntity
  8
Livello 01
 62
   250
420
  3355443
100
AcDbLine
 10
0.0
 20
-39.55
 30
22.49999999999997
 11
0.0
 21
-39.55
 31
13.4999999999997
  0
LINE
  5
2E2
330
26F
100
AcDbEntity
  8
Livello 01
 62
   250
420
  3355443
100
AcDbLine
 10
-13.50000000000017
 20
-39.55
 30
17.99999999999984
 11
13.50000000000018
 21
-39.55
 31
17.99999999999984
  0
LINE
  5
2E3
330
26F
100
AcDbEntity
  8
Livello 01
 62
   250
420
  3355443
100
AcDbLine
 10
-12.0
 20
-51.45
 30
13.5
 11
-12.0
 21
-51.45
 31
19.03286631067429
  0
LINE
  5
2E4
330
26F
100
AcDbEntity
  8
Livello 01
 62
   250
420
  3355443
100
AcDbLine
 10
-14.17809886737317
 20
-51.45
 30
17.47087612305095
 11
-6.000000000000004
 21
-51.45
 31
17.47087612305095
  0
LINE
  5
2E5
330
26F
100
AcDbEntity
  8
Livello 01
 62
   250
420
  3355443
100
AcDbLine
 10
0.0
 20
-40.55
 30
13.5
 11
0.0
 21
-40.55
 31
4.0
  0
LINE
  5
2E6
330
26F
100
AcDbEntity
  8
Livello 01
 62
   250
420
  3355443
100
AcDbLine
 10
0.0
 20
-40.55
 30
-3.999999999999999
 11
0.0
 21
-40.55
 31
-18.5
  0
LINE
  5
2E7
330
26F
100
AcDbEntity
  8
Livello 01
 62
   250
420
  3355443
100
AcDbLine
 10
-14.24999999999999
 20
-40.55
 30
-4.320794912742258
 11
14.25
 21
-40.55
 31
-4.320794912742258
  0
LINE
  5
2E8
330
26F
100
AcDbEntity
  8
Livello 01
 62
   250
420
  3355443
100
AcDbLine
 10
14.25
 20
-50.45
 30
-7.787154113570715
 11
4.392626919273033
 21
-50.45
 31
-7.787154113570715
  0
LINE
  5
2E9
330
26F
100
AcDbEntity
  8
Livello 01
 62
   250
420
  3355443
100
AcDbLine
 10
-4.392626919273015
 20
-50.45
 30
-7.787154113570715
 11
-14.25
 21
-50.45
 31
-7.787154113570715
  0
LINE
  5
2EA
330
26F
100
AcDbEntity
  8
Livello 01
 62
   250
420
  3355443
100
AcDbLine
 10
0.0
 20
-50.45
 30
-22.49999999999998
 11
0.0
 21
-50.45
 31
-9.7
  0
LINE
  5
2EB
330
26F
100
AcDbEntity
  8
Livello 01
 62
   250
420
  3355443
100
AcDbLine
 10
-18.0000000000001
 20
-45.50000000000005
 30
13.5
 11
-16.95
 21
-45.50000000000005
 31
13.5
  0
LINE
  5
2EC
330
26F
100
AcDbEntity
  8
Livello 01
 62
   250
420
  3355443
100
AcDbLine
 10
16.95
 20
-45.50000000000005
 30
13.5
 11
18.0000000000001
 21
-45.50000000000005
 31
13.5
  0
LINE
  5
2ED
330
26F
100
AcDbEntity
  8
Livello 01
 62
   250
420
  3355443
100
AcDbLine
 10
0.0
 20
-40.55
 30
13.5
 11
0.0
 21
-39.5500000000001
 31
13.5
  0
LINE
  5
2EE
330
26F
100
AcDbEntity
  8
Livello 01
 62
   250
420
  3355443
100
AcDbLine
 10
16.95
 20
-45.5
 30
-14.7968746700106
 11
16.95
 21
-45.5
 31
13.5
  0
LINE
  5
2EF
330
26F
100
AcDbEntity
  8
Livello 01
 62
   250
420
  3355443
100
AcDbLine
 10
16.95
 20
-47.75
 30
-0.6484373350053048
 11
16.95
 21
-43.25
 31
-0.6484373350053048
  0
LINE
  5
2F0
330
26F
100
AcDbEntity
  8
Livello 01
 62
   250
420
  3355443
100
AcDbLine
 10
-16.95
 20
-47.75000000000001
 30
-0.6484373350054042
 11
-16.95
 21
-43.25
 31
-0.6484373350054042
  0
LINE
  5
2F1
330
26F
100
AcDbEntity
  8
Livello 01
 62
   250
420
  3355443
100
AcDbLine
 10
-16.95
 20
-45.5
 30
-14.7968746700108
 11
-16.95
 21
-45.5
 31
13.5
  0
ARC
  5
2F2
330
26F
100
AcDbEntity
  8
Livello 01
 62
   250
420
  3355443
100
AcDbCircle
 10
-14.3000000000002
 20
-43.25
 30
0.0
 40
1.5
210
0.0
220
0.0
230
-1.0
100
AcDbArc
 50
90.0
 51
180.0
  0
LINE
  5
2F3
330
26F
100
AcDbEntity
  8
Livello 01
 62
   250
420
  3355443
100
AcDbLine
 10
0.0000000000000018
 20
-41.75
 30
22.49999999999999
 11
0.0000000000000018
 21
-41.75
 31
-22.49999999999999
  0
LINE
  5
2F4
330
26F
100
AcDbEntity
  8
Livello 01
 62
   250
420
  3355443
100
AcDbLine
 10
-14.3000000000002
 20
-41.75
 30
-0.0000000000000071
 11
14.3000000000002
 21
-41.75
 31
-0.0000000000000071
  0
ARC
  5
2F5
330
26F
100
AcDbEntity
  8
Livello 01
 62
   250
420
  3355443
100
AcDbCircle
 10
14.3000000000002
 20
-43.25
 30
0.0
 40
1.5
210
0.0
220
0.0
230
-1.0
100
AcDbArc
 50
0.0
 51
90.0
  0
LINE
  5
2F6
330
26F
100
AcDbEntity
  8
Livello 01
 62
   250
420
  3355443
100
AcDbLine
 10
-15.8000000000002
 20
-45.50016665925995
 30
16.019051157918
 11
-15.8000000000002
 21
-45.50016665925995
 31
-16.019051157918
  0
LINE
  5
2F7
330
26F
100
AcDbEntity
  8
Livello 01
 62
   250
420
  3355443
100
AcDbLine
 10
-15.8000000000002
 20
-47.75033331851989
 30
0.0
 11
-15.8000000000002
 21
-43.25
 31
0.0
  0
ARC
  5
2F8
330
26F
100
AcDbEntity
  8
Livello 01
 62
   250
420
  3355443
100
AcDbCircle
 10
14.3000000000002
 20
-47.7503333185199
 30
0.0
 40
1.5
210
0.0
220
0.0
230
-1.0
100
AcDbArc
 50
270.0
 51
0.0
  0
LINE
  5
2F9
330
26F
100
AcDbEntity
  8
Livello 01
 62
   250
420
  3355443
100
AcDbLine
 10
-0.0000000000000018
 20
-49.2503333185199
 30
-22.49999999999999
 11
-0.0000000000000018
 21
-49.2503333185199
 31
-9.700000000000008
  0
LINE
  5
2FA
330
26F
100
AcDbEntity
  8
Livello 01
 62
   250
420
  3355443
100
AcDbLine
 10
-14.3000000000002
 20
-49.2503333185199
 30
-3.850622011222157
 11
-5.998109119525523
 21
-49.2503333185199
 31
-3.850622011222157
  0
LINE
  5
2FB
330
26F
100
AcDbEntity
  8
Livello 01
 62
   250
420
  3355443
100
AcDbLine
 10
5.998109119525548
 20
-49.2503333185199
 30
-3.850622011222157
 11
14.3000000000002
 21
-49.2503333185199
 31
-3.850622011222157
  0
ARC
  5
2FC
330
26F
100
AcDbEntity
  8
Livello 01
 62
   250
420
  3355443
100
AcDbCircle
 10
-14.3000000000002
 20
-47.7503333185199
 30
0.0
 40
1.5
210
0.0
220
0.0
230
-1.0
100
AcDbArc
 50
180.0
 51
270.0
  0
LINE
  5
2FD
330
26F
100
AcDbEntity
  8
Livello 01
 62
   250
420
  3355443
100
AcDbLine
 10
15.8000000000002
 20
-45.50016665925995
 30
-16.019051157918
 11
15.8000000000002
 21
-45.50016665925995
 31
16.019051157918
  0
LINE
  5
2FE
330
26F
100
AcDbEntity
  8
Livello 01
 62
   250
420
  3355443
100
AcDbLine
 10
15.8000000000002
 20
-47.75033331851989
 30
0.0
 11
15.8000000000002
 21
-43.25
 31
0.0
  0
LINE
  5
2FF
330
26F
100
AcDbEntity
  8
Livello 01
 62
   250
420
  3355443
100
AcDbLine
 10
0.0
 20
-39.96061584566772
 30
-4.000000000000008
 11
0.0
 21
-38.55
 31
3.999999999999992
  0
LINE
  5
300
330
26F
100
AcDbEntity
  8
Livello 01
 62
   250
420
  3355443
100
AcDbLine
 10
-4.000000000000057
 20
-39.25530792283386
 30
-0.0000000000000071
 11
4.0
 21
-39.25530792283386
 31
-0.0000000000000071
  0
LINE
  5
301
330
26F
100
AcDbEntity
  8
Livello 01
 62
   250
420
  3355443
100
AcDbLine
 10
6.000000000000003
 20
-50.35016665925991
 30
20.3285513502561
 11
6.000000000000009
 21
-50.35016665925991
 31
-3.700000000000003
  0
LINE
  5
302
330
26F
100
AcDbEntity
  8
Livello 01
 62
   250
420
  3355443
100
AcDbLine
 10
6.000000000000006
 20
-50.44999999999999
 30
8.314275675128052
 11
6.000000000000006
 21
-49.25033331851989
 31
8.314275675128052
  0
ARC
  5
303
330
26F
100
AcDbEntity
  8
Livello 01
 62
   250
420
  3355443
100
AcDbCircle
 10
0.0
 20
-3.7
 30
-49.85016665925994
 40
6.0
210
0.0
220
1.0
230
0.0
100
AcDbArc
 50
180.0
 51
0.0
  0
LINE
  5
304
330
26F
100
AcDbEntity
  8
Livello 01
 62
   250
420
  3355443
100
AcDbLine
 10
0.0
 20
-50.45
 30
-9.7
 11
0.0
 21
-49.2503333185199
 31
-9.7
  0
LINE
  5
305
330
26F
100
AcDbEntity
  8
Livello 01
 62
   250
420
  3355443
100
AcDbLine
 10
-5.999999999999991
 20
-50.35016665925991
 30
-3.700000000000001
 11
-6.0
 21
-50.35016665925991
 31
20.3285513502561
  0
LINE
  5
306
330
26F
100
AcDbEntity
  8
Livello 01
 62
   250
420
  3355443
100
AcDbLine
 10
-5.999999999999995
 20
-50.44999999999999
 30
8.314275675128048
 11
-5.999999999999995
 21
-49.25033331851989
 31
8.314275675128048
  0
ARC
  5
307
330
26F
100
AcDbEntity
  8
Livello 01
 62
   250
420
  3355443
100
AcDbCircle
 10
7.0
 20
20.3285513502561
 30
-50.35016665925998
 40
1.0
210
0.0
220
1.0
230
0.0
100
AcDbArc
 50
70.99919763708634
 51
180.0
  0
LINE
  5
308
330
26F
100
AcDbEntity
  8
Livello 01
 62
   250
420
  3355443
100
AcDbLine
 10
-7.0
 20
-51.45
 30
21.3285513502561
 11
-7.0
 21
-49.2503333185199
 31
21.3285513502561
  0
ARC
  5
309
330
26F
100
AcDbEntity
  8
Livello 01
 62
   250
420
  3355443
100
AcDbCircle
 10
-7.0
 20
20.3285513502561
 30
-50.35016665925998
 40
1.0
210
0.0
220
1.0
230
0.0
100
AcDbArc
 50
0.0
 51
109.0008023629134
  0
LINE
  5
30A
330
26F
100
AcDbEntity
  8
Livello 01
 62
   250
420
  3355443
100
AcDbLine
 10
7.0
 20
-51.45
 30
21.3285513502561
 11
7.0
 21
-49.2503333185199
 31
21.3285513502561
  0
LINE
  5
30B
330
26F
100
AcDbEntity
  8
Livello 01
 62
   250
420
  3355443
100
AcDbLine
 10
0.0000000000000009
 20
-40.85
 30
-22.49999999999998
 11
0.0000000000000009
 21
-40.85
 31
-18.5
  0
LINE
  5
30C
330
26F
100
AcDbEntity
  8
Livello 01
 62
   250
420
  3355443
100
AcDbLine
 10
-4.000000000000001
 20
-40.85
 30
-20.68210591448397
 11
4.0
 21
-40.85
 31
-20.68210591448397
  0
LINE
  5
30D
330
26F
100
AcDbEntity
  8
Livello 01
 62
   250
420
  3355443
100
AcDbLine
 10
4.0
 20
-40.7
 30
-22.1415898254845
 11
4.0
 21
-40.7
 31
-20.0
  0
LINE
  5
30E
330
26F
100
AcDbEntity
  8
Livello 01
 62
   250
420
  3355443
100
AcDbLine
 10
4.0
 20
-40.84999999999995
 30
-21.07079491274225
 11
4.0
 21
-40.55
 31
-21.07079491274225
  0
LINE
  5
30F
330
26F
100
AcDbEntity
  8
Livello 01
 62
   250
420
  3355443
100
AcDbLine
 10
-4.0
 20
-40.7
 30
-20.0
 11
-4.0
 21
-40.7
 31
-22.1415898254845
  0
LINE
  5
310
330
26F
100
AcDbEntity
  8
Livello 01
 62
   250
420
  3355443
100
AcDbLine
 10
-4.0
 20
-40.84999999999995
 30
-21.07079491274225
 11
-4.0
 21
-40.55
 31
-21.07079491274225
  0
LINE
  5
311
330
26F
100
AcDbEntity
  8
Livello 01
 62
   250
420
  3355443
100
AcDbLine
 10
-2.5
 20
-40.7
 30
-18.5
 11
2.5
 21
-40.7
 31
-18.5
  0
LINE
  5
312
330
26F
100
AcDbEntity
  8
Livello 01
 62
   250
420
  3355443
100
AcDbLine
 10
0.0
 20
-40.84999999999999
 30
-18.5
 11
0.0
 21
-40.55
 31
-18.5
  0
ARC
  5
313
330
26F
100
AcDbEntity
  8
Livello 01
 62
   250
420
  3355443
100
AcDbCircle
 10
-14.25
 20
-43.25
 30
-1.956140074682878
 40
2.699999999999999
100
AcDbArc
 50
90.0
 51
180.0
  0
ARC
  5
314
330
26F
100
AcDbEntity
  8
Livello 01
 62
   250
420
  3355443
100
AcDbCircle
 10
14.25
 20
-43.25
 30
-1.956140074682935
 40
2.699999999999999
100
AcDbArc
 50
0.0
 51
90.0
  0
ARC
  5
315
330
26F
100
AcDbEntity
  8
Livello 01
 62
   250
420
  3355443
100
AcDbCircle
 10
14.25
 20
-47.75
 30
-1.956140074682935
 40
2.699999999999999
100
AcDbArc
 50
270.0
 51
0.0
  0
ARC
  5
316
330
26F
100
AcDbEntity
  8
Livello 01
 62
   250
420
  3355443
100
AcDbCircle
 10
-14.25
 20
-47.75
 30
-1.956140074682878
 40
2.699999999999999
100
AcDbArc
 50
180.0
 51
270.0
  0
ARC
  5
317
330
26F
100
AcDbEntity
  8
Livello 01
 62
   250
420
  3355443
100
AcDbCircle
 10
-2.5
 20
-20.0
 30
40.7
 40
1.5
210
0.0
220
-1.0
230
0.0
100
AcDbArc
 50
90.0
 51
180.0
  0
ARC
  5
318
330
26F
100
AcDbEntity
  8
Livello 01
 62
   250
420
  3355443
100
AcDbCircle
 10
-2.5
 20
-20.0
 30
-40.7
 40
1.5
210
0.0
220
1.0
230
0.0
100
AcDbArc
 50
90.0
 51
180.0
  0
ENDBLK
  5
31A
330
26F
100
AcDbEntity
  8
0
100
AcDbBlockEnd
  0
ENDSEC
  0
SECTION
  2
ENTITIES
  0
INSERT
  5
31E
330
1F
100
AcDbEntity
  8
Livello 01
100
AcDbBlockReference
  2
6300BR01-00
 10
0.0
 20
0.0
 30
0.0
  0
ENDSEC
  0
SECTION
  2
OBJECTS
  0
DICTIONARY
  5
C
330
0
100
AcDbDictionary
281
     1
  3
ACAD_DETAILVIEWSTYLE
350
35A
  3
ACAD_GROUP
350
D
  3
ACAD_LAYOUT
350
1A
  3
ACAD_MATERIAL
350
43
  3
ACAD_MLEADERSTYLE
350
5B
  3
ACAD_MLINESTYLE
350
17
  3
ACAD_PLOTSETTINGS
350
19
  3
ACAD_PLOTSTYLENAME
350
E
  3
ACAD_SCALELIST
350
47
  3
ACAD_SECTIONVIEWSTYLE
350
35B
  3
ACAD_TABLESTYLE
350
59
  3
ACAD_VISUALSTYLE
350
2A
  3
ACDB_RECOMPOSE_DATA
350
357
  3
AcDbVariableDictionary
350
31F
  0
SUN
  5
5D
330
29
100
AcDbSun
 90
        1
290
     0
 63
     7
421
 16777215
 40
1.0
291
     1
 91
  2455826
 92
 54000000
292
     0
 70
     2
 71
   256
280
     1
  0
DICTIONARY
  5
35A
102
{ACAD_REACTORS
330
C
102
}
330
C
100
AcDbDictionary
281
     1
  0
DICTIONARY
  5
D
102
{ACAD_REACTORS
330
C
102
}
330
C
100
AcDbDictionary
281
     1
  0
DICTIONARY
  5
1A
102
{ACAD_REACTORS
330
C
102
}
330
C
100
AcDbDictionary
281
     1
  3
Layout1
350
1E
  3
Layout2
350
26
  3
Model
350
22
  0
DICTIONARY
  5
43
102
{ACAD_REACTORS
330
C
102
}
330
C
100
AcDbDictionary
281
     1
  3
ByBlock
350
45
  3
ByLayer
350
44
  3
Global
350
46
  0
DICTIONARY
  5
5B
102
{ACAD_REACTORS
330
C
102
}
330
C
100
AcDbDictionary
281
     1
  3
Standard
350
5C
  0
DICTIONARY
  5
17
102
{ACAD_REACTORS
330
C
102
}
330
C
100
AcDbDictionary
281
     1
  3
Standard
350
18
  0
DICTIONARY
  5
19
102
{ACAD_REACTORS
330
C
102
}
330
C
100
AcDbDictionary
281
     1
  0
ACDBDICTIONARYWDFLT
  5
E
102
{ACAD_REACTORS
330
C
102
}
330
C
100
AcDbDictionary
281
     1
  3
Normal
350
F
100
AcDbDictionaryWithDefault
340
F
  0
DICTIONARY
  5
47
102
{ACAD_REACTORS
330
C
102
}
330
C
100
AcDbDictionary
281
     1
  3
A0
350
48
  3
A1
350
49
  3
A2
350
4A
  3
A3
350
4B
  3
A4
350
4C
  3
A5
350
4D
  3
A6
350
4E
  3
A7
350
4F
  3
A8
350
50
  3
A9
350
51
  3
B1
350
52
  3
B2
350
53
  3
B3
350
54
  3
B4
350
55
  3
B5
350
56
  3
B6
350
57
  3
B7
350
58
  0
DICTIONARY
  5
35B
102
{ACAD_REACTORS
330
C
102
}
330
C
100
AcDbDictionary
281
     1
  0
DICTIONARY
  5
59
102
{ACAD_REACTORS
330
C
102
}
330
C
100
AcDbDictionary
281
     1
  3
Standard
350
5A
  0
DICTIONARY
  5
2A
102
{ACAD_REACTORS
330
C
102
}
330
C
100
AcDbDictionary
281
     1
  3
2dWireframe
350
2F
  3
Basic
350
32
  3
Brighten
350
36
  3
ColorChange
350
3A
  3
Conceptual
350
34
  3
Dim
350
35
  3
EdgeColorOff
350
3D
  3
Facepattern
350
39
  3
Flat
350
2B
  3
FlatWithEdges
350
2C
  3
Gouraud
350
2D
  3
GouraudWithEdges
350
2E
  3
Hidden
350
31
  3
JitterOff
350
3B
  3
Linepattern
350
38
  3
OverhangOff
350
3C
  3
Realistic
350
33
  3
Shaded
350
42
  3
Shaded with edges
350
41
  3
Shades of Gray
350
3E
  3
Sketchy
350
3F
  3
Thicken
350
37
  3
Wireframe
350
30
  3
X-Ray
350
40
  0
XRECORD
  5
357
102
{ACAD_REACTORS
330
C
102
}
330
C
100
AcDbXrecord
280
     1
 90
        1
330
5A
  0
DICTIONARY
  5
31F
102
{ACAD_REACTORS
330
C
102
}
330
C
100
AcDbDictionary
281
     1
  3
CANNOSCALE
350
320
  3
CMLEADERSTYLE
350
359
  3
CTABLESTYLE
350
358
  3
XCLIPFRAME
350
321
  0
LAYOUT
  5
1E
102
{ACAD_REACTORS
330
1A
102
}
330
1A
100
AcDbPlotSettings
  1

  2
none_device
  4

  6

 40
0.0
 41
0.0
 42
0.0
 43
0.0
 44
0.0
 45
0.0
 46
0.0
 47
0.0
 48
0.0
 49
0.0
140
0.0
141
0.0
142
1.0
143
1.0
 70
   688
 72
     0
 73
     0
 74
     5
  7

 75
    16
 76
     0
 77
     2
 78
   300
147
1.0
148
0.0
149
0.0
100
AcDbLayout
  1
Layout1
 70
     1
 71
     1
 10
0.0
 20
0.0
 11
12.0
 21
9.0
 12
0.0
 22
0.0
 32
0.0
 14
1.000000000000000E+20
 24
1.000000000000000E+20
 34
1.000000000000000E+20
 15
-1.000000000000000E+20
 25
-1.000000000000000E+20
 35
-1.000000000000000E+20
146
0.0
 13
0.0
 23
0.0
 33
0.0
 16
1.0
 26
0.0
 36
0.0
 17
0.0
 27
1.0
 37
0.0
 76
     0
330
1B
  0
LAYOUT
  5
26
102
{ACAD_REACTORS
330
1A
102
}
330
1A
100
AcDbPlotSettings
  1

  2
none_device
  4

  6

 40
0.0
 41
0.0
 42
0.0
 43
0.0
 44
0.0
 45
0.0
 46
0.0
 47
0.0
 48
0.0
 49
0.0
140
0.0
141
0.0
142
1.0
143
1.0
 70
   688
 72
     0
 73
     0
 74
     5
  7

 75
    16
 76
     0
 77
     2
 78
   300
147
1.0
148
0.0
149
0.0
100
AcDbLayout
  1
Layout2
 70
     1
 71
     2
 10
0.0
 20
0.0
 11
0.0
 21
0.0
 12
0.0
 22
0.0
 32
0.0
 14
0.0
 24
0.0
 34
0.0
 15
0.0
 25
0.0
 35
0.0
146
0.0
 13
0.0
 23
0.0
 33
0.0
 16
1.0
 26
0.0
 36
0.0
 17
0.0
 27
1.0
 37
0.0
 76
     0
330
23
  0
LAYOUT
  5
22
102
{ACAD_REACTORS
330
1A
102
}
330
1A
100
AcDbPlotSettings
  1

  2
none_device
  4
Letter_(8.50_x_11.00_Inches)
  6

 40
6.35
 41
6.35
 42
6.35000508
 43
6.35000508
 44
215.9
 45
279.4
 46
0.0
 47
0.0
 48
0.0
 49
0.0
140
0.0
141
0.0
142
1.0
143
1.0
 70
  1712
 72
     0
 73
     0
 74
     0
  7

 75
     0
 76
     0
 77
     2
 78
   300
147
1.0
148
0.0
149
0.0
100
AcDbLayout
  1
Model
 70
     1
 71
     0
 10
0.0
 20
0.0
 11
12.0
 21
9.0
 12
0.0
 22
0.0
 32
0.0
 14
-22.50000000000012
 24
-62.51263892240405
 34
-70.77506673124022
 15
22.50000000000028
 25
38.97114317451133
 35
60.00000000000072
146
0.0
 13
0.0
 23
0.0
 33
0.0
 16
1.0
 26
0.0
 36
0.0
 17
0.0
 27
1.0
 37
0.0
 76
     0
330
1F
331
29
  0
MATERIAL
  5
45
102
{ACAD_REACTORS
330
43
102
}
330
43
100
AcDbMaterial
  1
ByBlock
 72
     1
 94
      127
  0
MATERIAL
  5
44
102
{ACAD_REACTORS
330
43
102
}
330
43
100
AcDbMaterial
  1
ByLayer
 72
     1
 94
      127
  0
MATERIAL
  5
46
102
{ACAD_REACTORS
330
43
102
}
330
43
100
AcDbMaterial
  1
Global
 72
     1
 94
      127
  0
MLEADERSTYLE
  5
5C
102
{ACAD_REACTORS
330
5B
102
}
102
{ACAD_XDICTIONARY
360
355
102
}
330
5B
100
AcDbMLeaderStyle
170
     2
171
     1
172
     0
 90
        2
 40
0.0
 41
0.0
173
     1
 91
-1056964608
340
14
 92
       -2
290
     1
 42
0.09
291
     1
 43
0.36
  3
Standard
341
0
 44
0.18
300

342
11
174
     1
178
     6
175
     1
176
     0
 93
-1056964608
 45
0.18
292
     0
297
     0
 46
0.18
343
0
 94
-1056964608
 47
1.0
 49
1.0
140
1.0
293
     1
141
0.0
294
     1
177
     0
142
1.0
295
     0
296
     0
143
0.125
1001
ACAD_MLEADERVER
1070
     2
  0
MLINESTYLE
  5
18
102
{ACAD_REACTORS
330
17
102
}
330
17
100
AcDbMlineStyle
  2
Standard
 70
     0
  3

 62
   256
 51
90.0
 52
90.0
 71
     2
 49
0.5
 62
   256
  6
BYLAYER
 49
-0.5
 62
   256
  6
BYLAYER
  0
ACDBPLACEHOLDER
  5
F
102
{ACAD_REACTORS
330
E
102
}
330
E
  0
SCALE
  5
48
102
{ACAD_REACTORS
330
47
102
}
330
47
100
AcDbScale
 70
     0
300
1:1
140
1.0
141
1.0
290
     1
  0
SCALE
  5
49
102
{ACAD_REACTORS
330
47
102
}
330
47
100
AcDbScale
 70
     0
300
1/128" = 1'-0"
140
0.0078125
141
12.0
290
     0
  0
SCALE
  5
4A
102
{ACAD_REACTORS
330
47
102
}
330
47
100
AcDbScale
 70
     0
300
1/64" = 1'-0"
140
0.015625
141
12.0
290
     0
  0
SCALE
  5
4B
102
{ACAD_REACTORS
330
47
102
}
330
47
100
AcDbScale
 70
     0
300
1/32" = 1'-0"
140
0.03125
141
12.0
290
     0
  0
SCALE
  5
4C
102
{ACAD_REACTORS
330
47
102
}
330
47
100
AcDbScale
 70
     0
300
1/16" = 1'-0"
140
0.0625
141
12.0
290
     0
  0
SCALE
  5
4D
102
{ACAD_REACTORS
330
47
102
}
330
47
100
AcDbScale
 70
     0
300
3/32" = 1'-0"
140
0.09375
141
12.0
290
     0
  0
SCALE
  5
4E
102
{ACAD_REACTORS
330
47
102
}
330
47
100
AcDbScale
 70
     0
300
1/8" = 1'-0"
140
0.125
141
12.0
290
     0
  0
SCALE
  5
4F
102
{ACAD_REACTORS
330
47
102
}
330
47
100
AcDbScale
 70
     0
300
3/16" = 1'-0"
140
0.1875
141
12.0
290
     0
  0
SCALE
  5
50
102
{ACAD_REACTORS
330
47
102
}
330
47
100
AcDbScale
 70
     0
300
1/4" = 1'-0"
140
0.25
141
12.0
290
     0
  0
SCALE
  5
51
102
{ACAD_REACTORS
330
47
102
}
330
47
100
AcDbScale
 70
     0
300
3/8" = 1'-0"
140
0.375
141
12.0
290
     0
  0
SCALE
  5
52
102
{ACAD_REACTORS
330
47
102
}
330
47
100
AcDbScale
 70
     0
300
1/2" = 1'-0"
140
0.5
141
12.0
290
     0
  0
SCALE
  5
53
102
{ACAD_REACTORS
330
47
102
}
330
47
100
AcDbScale
 70
     0
300
3/4" = 1'-0"
140
0.75
141
12.0
290
     0
  0
SCALE
  5
54
102
{ACAD_REACTORS
330
47
102
}
330
47
100
AcDbScale
 70
     0
300
1" = 1'-0"
140
1.0
141
12.0
290
     0
  0
SCALE
  5
55
102
{ACAD_REACTORS
330
47
102
}
330
47
100
AcDbScale
 70
     0
300
1-1/2" = 1'-0"
140
1.5
141
12.0
290
     0
  0
SCALE
  5
56
102
{ACAD_REACTORS
330
47
102
}
330
47
100
AcDbScale
 70
     0
300
3" = 1'-0"
140
3.0
141
12.0
290
     0
  0
SCALE
  5
57
102
{ACAD_REACTORS
330
47
102
}
330
47
100
AcDbScale
 70
     0
300
6" = 1'-0"
140
6.0
141
12.0
290
     0
  0
SCALE
  5
58
102
{ACAD_REACTORS
330
47
102
}
330
47
100
AcDbScale
 70
     0
300
1'-0" = 1'-0"
140
12.0
141
12.0
290
     0
  0
TABLESTYLE
  5
5A
102
{ACAD_REACTORS
330
59
102
}
102
{ACAD_XDICTIONARY
360
352
102
}
330
59
100
AcDbTableStyle
  3
Standard
 70
     0
 71
     0
 40
0.06
 41
0.06
280
     0
281
     0
  7
Standard
140
0.18
170
     2
 62
     0
 63
   257
283
     0
 90
        4
 91
        0
  1

274
    -2
284
     1
 64
     0
275
    -2
285
     1
 65
     0
276
    -2
286
     1
 66
     0
277
    -2
287
     1
 67
     0
278
    -2
288
     1
 68
     0
279
    -2
289
     1
 69
     0
  7
Standard
140
0.25
170
     5
 62
     0
 63
   257
283
     0
 90
        4
 91
        0
  1

274
    -2
284
     1
 64
     0
275
    -2
285
     1
 65
     0
276
    -2
286
     1
 66
     0
277
    -2
287
     1
 67
     0
278
    -2
288
     1
 68
     0
279
    -2
289
     1
 69
     0
  7
Standard
140
0.18
170
     5
 62
     0
 63
   257
283
     0
 90
        4
 91
        0
  1

274
    -2
284
     1
 64
     0
275
    -2
285
     1
 65
     0
276
    -2
286
     1
 66
     0
277
    -2
287
     1
 67
     0
278
    -2
288
     1
 68
     0
279
    -2
289
     1
 69
     0
  0
VISUALSTYLE
  5
2F
102
{ACAD_REACTORS
330
2A
102
}
102
{ACAD_XDICTIONARY
360
32A
102
}
330
2A
100
AcDbVisualStyle
  2
2dWireframe
 70
     4
 71
     0
 72
     2
 73
     0
 90
        0
 40
0.6
 41
30.0
 62
     5
 63
     7
421
 16777215
 74
     1
 91
        4
 64
     7
 65
   257
 75
     1
175
     1
 42
1.0
 92
        0
 66
   257
 43
1.0
 76
     1
 77
     6
 78
     2
 67
     7
 79
     5
170
     0
171
     0
290
     0
174
     0
 93
        1
 44
0.0
173
     0
291
     0
 45
0.0
  0
VISUALSTYLE
  5
32
102
{ACAD_REACTORS
330
2A
102
}
102
{ACAD_XDICTIONARY
360
330
102
}
330
2A
100
AcDbVisualStyle
  2
Basic
 70
     7
 71
     1
 72
     0
 73
     1
 90
        0
 40
0.6
 41
30.0
 62
     5
 63
     7
421
 16777215
 74
     0
 91
        4
 64
     7
 65
   257
 75
     1
175
     1
 42
1.0
 92
        8
 66
     7
 43
1.0
 76
     1
 77
     6
 78
     2
 67
     7
 79
     5
170
     0
171
     0
290
     0
174
     0
 93
        1
 44
0.0
173
     0
291
     1
 45
0.0
  0
VISUALSTYLE
  5
36
102
{ACAD_REACTORS
330
2A
102
}
102
{ACAD_XDICTIONARY
360
338
102
}
330
2A
100
AcDbVisualStyle
  2
Brighten
 70
    12
 71
     2
 72
     2
 73
     0
 90
        0
 40
0.6
 41
30.0
 62
     5
 63
     7
421
 16777215
 74
     1
 91
        4
 64
     7
 65
   257
 75
     1
175
     1
 42
1.0
 92
        8
 66
     7
 43
1.0
 76
     1
 77
     6
 78
     2
 67
     7
 79
     5
170
     0
171
     0
290
     0
174
     0
 93
        1
 44
50.0
173
     0
291
     1
 45
0.0
  0
VISUALSTYLE
  5
3A
102
{ACAD_REACTORS
330
2A
102
}
102
{ACAD_XDICTIONARY
360
340
102
}
330
2A
100
AcDbVisualStyle
  2
ColorChange
 70
    16
 71
     2
 72
     2
 73
     3
 90
        0
 40
0.6
 41
30.0
 62
     5
 63
     8
421
  8421504
 74
     1
 91
        4
 64
     7
 65
   257
 75
     1
175
     1
 42
1.0
 92
        8
 66
     8
424
  8421504
 43
1.0
 76
     1
 77
     6
 78
     2
 67
     7
 79
     5
170
     0
171
     0
290
     0
174
     0
 93
        1
 44
0.0
173
     0
291
     1
 45
0.0
  0
VISUALSTYLE
  5
34
102
{ACAD_REACTORS
330
2A
102
}
102
{ACAD_XDICTIONARY
360
334
102
}
330
2A
100
AcDbVisualStyle
  2
Conceptual
 70
     9
 71
     3
 72
     2
 73
     0
 90
        0
 40
0.6
 41
30.0
 62
     5
 63
     7
421
 16777215
 74
     2
 91
        2
 64
     7
 65
   257
 75
     1
175
     1
 42
179.0
 92
        8
 66
     7
 43
1.0
 76
     1
 77
     6
 78
     2
 67
     7
 79
     3
170
     0
171
     0
290
     0
174
     0
 93
        1
 44
0.0
173
     0
291
     0
 45
0.0
  0
VISUALSTYLE
  5
35
102
{ACAD_REACTORS
330
2A
102
}
102
{ACAD_XDICTIONARY
360
336
102
}
330
2A
100
AcDbVisualStyle
  2
Dim
 70
    11
 71
     2
 72
     2
 73
     0
 90
        0
 40
0.6
 41
30.0
 62
     5
 63
     7
421
 16777215
 74
     1
 91
        4
 64
     7
 65
   257
 75
     1
175
     1
 42
1.0
 92
        8
 66
     7
 43
1.0
 76
     1
 77
     6
 78
     2
 67
     7
 79
     5
170
     0
171
     0
290
     0
174
     0
 93
        1
 44
-50.0
173
     0
291
     1
 45
0.0
  0
VISUALSTYLE
  5
3D
102
{ACAD_REACTORS
330
2A
102
}
102
{ACAD_XDICTIONARY
360
346
102
}
330
2A
100
AcDbVisualStyle
  2
EdgeColorOff
 70
    22
 71
     2
 72
     2
 73
     0
 90
        0
 40
0.6
 41
30.0
 62
     5
 63
     7
421
 16777215
 74
     1
 91
        4
 64
     7
 65
   257
 75
     1
175
     1
 42
1.0
 92
        8
 66
     7
 43
1.0
 76
     1
 77
     6
 78
     2
 67
     7
 79
     5
170
     0
171
     0
290
     0
174
     0
 93
        1
 44
0.0
173
     0
291
     1
 45
0.0
  0
VISUALSTYLE
  5
39
102
{ACAD_REACTORS
330
2A
102
}
102
{ACAD_XDICTIONARY
360
33E
102
}
330
2A
100
AcDbVisualStyle
  2
Facepattern
 70
    15
 71
     2
 72
     2
 73
     0
 90
        0
 40
0.6
 41
30.0
 62
     5
 63
     7
421
 16777215
 74
     1
 91
        4
 64
     7
 65
   257
 75
     1
175
     1
 42
1.0
 92
        8
 66
     7
 43
1.0
 76
     1
 77
     6
 78
     2
 67
     7
 79
     5
170
     0
171
     0
290
     0
174
     0
 93
        1
 44
0.0
173
     0
291
     1
 45
0.0
  0
VISUALSTYLE
  5
2B
102
{ACAD_REACTORS
330
2A
102
}
102
{ACAD_XDICTIONARY
360
322
102
}
330
2A
100
AcDbVisualStyle
  2
Flat
 70
     0
 71
     2
 72
     1
 73
     1
 90
        2
 40
0.6
 41
30.0
 62
     5
 63
     7
421
 16777215
 74
     0
 91
        0
 64
     7
 65
   257
 75
     1
175
     1
 42
1.0
 92
        8
 66
     7
 43
1.0
 76
     1
 77
     6
 78
     2
 67
     7
 79
     5
170
     0
171
     0
290
     0
174
     0
 93
       13
 44
0.0
173
     0
291
     1
 45
0.0
  0
VISUALSTYLE
  5
2C
102
{ACAD_REACTORS
330
2A
102
}
102
{ACAD_XDICTIONARY
360
324
102
}
330
2A
100
AcDbVisualStyle
  2
FlatWithEdges
 70
     1
 71
     2
 72
     1
 73
     1
 90
        2
 40
0.6
 41
30.0
 62
     5
 63
     7
421
 16777215
 74
     1
 91
        0
 64
     7
 65
   257
 75
     1
175
     1
 42
1.0
 92
        0
 66
   257
 43
1.0
 76
     1
 77
     6
 78
     2
 67
     7
 79
     5
170
     0
171
     0
290
     0
174
     0
 93
       13
 44
0.0
173
     0
291
     1
 45
0.0
  0
VISUALSTYLE
  5
2D
102
{ACAD_REACTORS
330
2A
102
}
102
{ACAD_XDICTIONARY
360
326
102
}
330
2A
100
AcDbVisualStyle
  2
Gouraud
 70
     2
 71
     2
 72
     2
 73
     1
 90
        2
 40
0.6
 41
30.0
 62
     5
 63
     7
421
 16777215
 74
     0
 91
        0
 64
     7
 65
   257
 75
     1
175
     1
 42
1.0
 92
        0
 66
     7
 43
1.0
 76
     1
 77
     6
 78
     2
 67
     7
 79
     5
170
     0
171
     0
290
     0
174
     0
 93
       13
 44
0.0
173
     0
291
     1
 45
0.0
  0
VISUALSTYLE
  5
2E
102
{ACAD_REACTORS
330
2A
102
}
102
{ACAD_XDICTIONARY
360
328
102
}
330
2A
100
AcDbVisualStyle
  2
GouraudWithEdges
 70
     3
 71
     2
 72
     2
 73
     1
 90
        2
 40
0.6
 41
30.0
 62
     5
 63
     7
421
 16777215
 74
     1
 91
        0
 64
     7
 65
   257
 75
     1
175
     1
 42
1.0
 92
        0
 66
   257
 43
1.0
 76
     1
 77
     6
 78
     2
 67
     7
 79
     5
170
     0
171
     0
290
     0
174
     0
 93
       13
 44
0.0
173
     0
291
     1
 45
0.0
  0
VISUALSTYLE
  5
31
102
{ACAD_REACTORS
330
2A
102
}
102
{ACAD_XDICTIONARY
360
32E
102
}
330
2A
100
AcDbVisualStyle
  2
Hidden
 70
     6
 71
     1
 72
     2
 73
     2
 90
        0
 40
0.6
 41
30.0
 62
     5
 63
     7
421
 16777215
 74
     2
 91
        2
 64
     7
 65
   257
 75
     2
175
     1
 42
40.0
 92
        0
 66
   257
 43
1.0
 76
     1
 77
     6
 78
     2
 67
     7
 79
     3
170
     0
171
     0
290
     0
174
     0
 93
        1
 44
0.0
173
     0
291
     0
 45
0.0
  0
VISUALSTYLE
  5
3B
102
{ACAD_REACTORS
330
2A
102
}
102
{ACAD_XDICTIONARY
360
342
102
}
330
2A
100
AcDbVisualStyle
  2
JitterOff
 70
    20
 71
     2
 72
     2
 73
     0
 90
        0
 40
0.6
 41
30.0
 62
     5
 63
     7
421
 16777215
 74
     1
 91
        4
 64
     7
 65
   257
 75
     1
175
     1
 42
1.0
 92
       10
 66
     7
 43
1.0
 76
     1
 77
     6
 78
     2
 67
     7
 79
     5
170
     0
171
     0
290
     0
174
     0
 93
        1
 44
0.0
173
     0
291
     1
 45
0.0
  0
VISUALSTYLE
  5
38
102
{ACAD_REACTORS
330
2A
102
}
102
{ACAD_XDICTIONARY
360
33C
102
}
330
2A
100
AcDbVisualStyle
  2
Linepattern
 70
    14
 71
     2
 72
     2
 73
     0
 90
        0
 40
0.6
 41
30.0
 62
     5
 63
     7
421
 16777215
 74
     1
 91
        4
 64
     7
 65
   257
 75
     7
175
     7
 42
1.0
 92
        8
 66
     7
 43
1.0
 76
     1
 77
     6
 78
     2
 67
     7
 79
     5
170
     0
171
     0
290
     0
174
     0
 93
        1
 44
0.0
173
     0
291
     1
 45
0.0
  0
VISUALSTYLE
  5
3C
102
{ACAD_REACTORS
330
2A
102
}
102
{ACAD_XDICTIONARY
360
344
102
}
330
2A
100
AcDbVisualStyle
  2
OverhangOff
 70
    21
 71
     2
 72
     2
 73
     0
 90
        0
 40
0.6
 41
30.0
 62
     5
 63
     7
421
 16777215
 74
     1
 91
        4
 64
     7
 65
   257
 75
     1
175
     1
 42
1.0
 92
        9
 66
     7
 43
1.0
 76
     1
 77
     6
 78
     2
 67
     7
 79
     5
170
     0
171
     0
290
     0
174
     0
 93
        1
 44
0.0
173
     0
291
     1
 45
0.0
  0
VISUALSTYLE
  5
33
102
{ACAD_REACTORS
330
2A
102
}
102
{ACAD_XDICTIONARY
360
332
102
}
330
2A
100
AcDbVisualStyle
  2
Realistic
 70
     8
 71
     2
 72
     3
 73
     0
 90
        2
 40
0.6
 41
30.0
 62
     5
 63
     7
421
 16777215
 74
     0
 91
        0
 64
     7
 65
   257
 75
     1
175
     1
 42
1.0
 92
        8
 66
   257
 43
1.0
 76
     1
 77
     6
 78
     2
 67
     7
 79
     3
170
     0
171
     0
290
     0
174
     0
 93
       13
 44
0.0
173
     0
291
     0
 45
0.0
  0
VISUALSTYLE
  5
42
102
{ACAD_REACTORS
330
2A
102
}
102
{ACAD_XDICTIONARY
360
350
102
}
330
2A
100
AcDbVisualStyle
  2
Shaded
 70
    27
 71
     2
 72
     2
 73
     1
 90
        2
 40
0.6
 41
30.0
 62
     5
 63
     7
421
 16777215
 74
     0
 91
        4
 64
     7
 65
   257
 75
     1
175
     1
 42
1.0
 92
        8
 66
   257
 43
1.0
 76
     1
 77
     6
 78
     2
 67
     8
425
  7895160
 79
     3
170
     0
171
     0
290
     0
174
     0
 93
        5
 44
0.0
173
     0
291
     0
 45
0.0
  0
VISUALSTYLE
  5
41
102
{ACAD_REACTORS
330
2A
102
}
102
{ACAD_XDICTIONARY
360
34E
102
}
330
2A
100
AcDbVisualStyle
  2
Shaded with edges
 70
    26
 71
     2
 72
     2
 73
     1
 90
        2
 40
0.6
 41
30.0
 62
     5
 63
     7
421
 16777215
 74
     1
 91
       10
 64
     7
 65
   257
 75
     2
175
     1
 42
1.0
 92
        8
 66
   257
 43
1.0
 76
     1
 77
     6
 78
     2
 67
     7
 79
     3
170
     0
171
     0
290
     0
174
     0
 93
        5
 44
0.0
173
     0
291
     0
 45
0.0
  0
VISUALSTYLE
  5
3E
102
{ACAD_REACTORS
330
2A
102
}
102
{ACAD_XDICTIONARY
360
348
102
}
330
2A
100
AcDbVisualStyle
  2
Shades of Gray
 70
    23
 71
     2
 72
     2
 73
     3
 90
        0
 40
0.6
 41
30.0
 62
     5
 63
     7
421
 16777215
 74
     2
 91
        2
 64
     7
 65
     7
 75
     1
175
     1
 42
40.0
 92
        8
 66
     7
 43
1.0
 76
     1
 77
     6
 78
     2
 67
     7
 79
     3
170
     0
171
     0
290
     0
174
     0
 93
        1
 44
0.0
173
     0
291
     0
 45
0.0
  0
VISUALSTYLE
  5
3F
102
{ACAD_REACTORS
330
2A
102
}
102
{ACAD_XDICTIONARY
360
34A
102
}
330
2A
100
AcDbVisualStyle
  2
Sketchy
 70
    24
 71
     1
 72
     2
 73
     2
 90
        0
 40
0.6
 41
30.0
 62
     5
 63
     7
421
 16777215
 74
     2
 91
        2
 64
     7
 65
     7
 75
     1
175
     1
 42
40.0
 92
       11
 66
     7
 43
1.0
 76
     1
 77
     6
 78
     2
 67
     7
 79
     6
170
     0
171
     0
290
     0
174
     0
 93
        1
 44
0.0
173
     0
291
     0
 45
0.0
  0
VISUALSTYLE
  5
37
102
{ACAD_REACTORS
330
2A
102
}
102
{ACAD_XDICTIONARY
360
33A
102
}
330
2A
100
AcDbVisualStyle
  2
Thicken
 70
    13
 71
     2
 72
     2
 73
     0
 90
        0
 40
0.6
 41
30.0
 62
     5
 63
     7
421
 16777215
 74
     1
 91
        4
 64
     7
 65
   257
 75
     1
175
     1
 42
1.0
 92
       12
 66
     7
 43
1.0
 76
     1
 77
     6
 78
     2
 67
     7
 79
     5
170
     0
171
     0
290
     0
174
     0
 93
        1
 44
0.0
173
     0
291
     1
 45
0.0
  0
VISUALSTYLE
  5
30
102
{ACAD_REACTORS
330
2A
102
}
102
{ACAD_XDICTIONARY
360
32C
102
}
330
2A
100
AcDbVisualStyle
  2
Wireframe
 70
     5
 71
     0
 72
     2
 73
     0
 90
        0
 40
0.6
 41
30.0
 62
     5
 63
     7
421
 16777215
 74
     1
 91
        4
 64
     7
 65
   257
 75
     1
175
     1
 42
1.0
 92
        0
 66
   257
 43
1.0
 76
     1
 77
     6
 78
     2
 67
     7
 79
     3
170
     0
171
     0
290
     0
174
     0
 93
        1
 44
0.0
173
     0
291
     0
 45
0.0
  0
VISUALSTYLE
  5
40
102
{ACAD_REACTORS
330
2A
102
}
102
{ACAD_XDICTIONARY
360
34C
102
}
330
2A
100
AcDbVisualStyle
  2
X-Ray
 70
    25
 71
     2
 72
     2
 73
     1
 90
        1
 40
0.5
 41
30.0
 62
     5
 63
     7
421
 16777215
 74
     1
 91
        0
 64
     7
 65
   257
 75
     1
175
     1
 42
1.0
 92
        8
 66
     7
 43
1.0
 76
     1
 77
     6
 78
     2
 67
     7
 79
     3
170
     0
171
     0
290
     0
174
     0
 93
       13
 44
0.0
173
     0
291
     0
 45
0.0
  0
DICTIONARYVAR
  5
320
102
{ACAD_REACTORS
330
31F
102
}
330
31F
100
DictionaryVariables
280
     0
  1
1:1
  0
DICTIONARYVAR
  5
359
102
{ACAD_REACTORS
330
31F
102
}
330
31F
100
DictionaryVariables
280
     0
  1
Standard
  0
DICTIONARYVAR
  5
358
102
{ACAD_REACTORS
330
31F
102
}
330
31F
100
DictionaryVariables
280
     0
  1
Standard
  0
DICTIONARYVAR
  5
321
102
{ACAD_REACTORS
330
31F
102
}
330
31F
100
DictionaryVariables
280
     0
  1
2
  0
DICTIONARY
  5
355
330
5C
100
AcDbDictionary
280
     1
281
     1
  3
ACAD_XREC_ROUNDTRIP
360
356
  0
DICTIONARY
  5
352
330
5A
100
AcDbDictionary
280
     1
281
     1
  3
ACAD_ROUNDTRIP_2008_TABLESTYLE_CELLSTYLEMAP
360
353
  0
DICTIONARY
  5
32A
330
2F
100
AcDbDictionary
280
     1
281
     1
  3
ACAD_XREC_ROUNDTRIP
360
32B
  0
DICTIONARY
  5
330
330
32
100
AcDbDictionary
280
     1
281
     1
  3
ACAD_XREC_ROUNDTRIP
360
331
  0
DICTIONARY
  5
338
330
36
100
AcDbDictionary
280
     1
281
     1
  3
ACAD_XREC_ROUNDTRIP
360
339
  0
DICTIONARY
  5
340
330
3A
100
AcDbDictionary
280
     1
281
     1
  3
ACAD_XREC_ROUNDTRIP
360
341
  0
DICTIONARY
  5
334
330
34
100
AcDbDictionary
280
     1
281
     1
  3
ACAD_XREC_ROUNDTRIP
360
335
  0
DICTIONARY
  5
336
330
35
100
AcDbDictionary
280
     1
281
     1
  3
ACAD_XREC_ROUNDTRIP
360
337
  0
DICTIONARY
  5
346
330
3D
100
AcDbDictionary
280
     1
281
     1
  3
ACAD_XREC_ROUNDTRIP
360
347
  0
DICTIONARY
  5
33E
330
39
100
AcDbDictionary
280
     1
281
     1
  3
ACAD_XREC_ROUNDTRIP
360
33F
  0
DICTIONARY
  5
322
330
2B
100
AcDbDictionary
280
     1
281
     1
  3
ACAD_XREC_ROUNDTRIP
360
323
  0
DICTIONARY
  5
324
330
2C
100
AcDbDictionary
280
     1
281
     1
  3
ACAD_XREC_ROUNDTRIP
360
325
  0
DICTIONARY
  5
326
330
2D
100
AcDbDictionary
280
     1
281
     1
  3
ACAD_XREC_ROUNDTRIP
360
327
  0
DICTIONARY
  5
328
330
2E
100
AcDbDictionary
280
     1
281
     1
  3
ACAD_XREC_ROUNDTRIP
360
329
  0
DICTIONARY
  5
32E
330
31
100
AcDbDictionary
280
     1
281
     1
  3
ACAD_XREC_ROUNDTRIP
360
32F
  0
DICTIONARY
  5
342
330
3B
100
AcDbDictionary
280
     1
281
     1
  3
ACAD_XREC_ROUNDTRIP
360
343
  0
DICTIONARY
  5
33C
330
38
100
AcDbDictionary
280
     1
281
     1
  3
ACAD_XREC_ROUNDTRIP
360
33D
  0
DICTIONARY
  5
344
330
3C
100
AcDbDictionary
280
     1
281
     1
  3
ACAD_XREC_ROUNDTRIP
360
345
  0
DICTIONARY
  5
332
330
33
100
AcDbDictionary
280
     1
281
     1
  3
ACAD_XREC_ROUNDTRIP
360
333
  0
DICTIONARY
  5
350
330
42
100
AcDbDictionary
280
     1
281
     1
  3
ACAD_XREC_ROUNDTRIP
360
351
  0
DICTIONARY
  5
34E
330
41
100
AcDbDictionary
280
     1
281
     1
  3
ACAD_XREC_ROUNDTRIP
360
34F
  0
DICTIONARY
  5
348
330
3E
100
AcDbDictionary
280
     1
281
     1
  3
ACAD_XREC_ROUNDTRIP
360
349
  0
DICTIONARY
  5
34A
330
3F
100
AcDbDictionary
280
     1
281
     1
  3
ACAD_XREC_ROUNDTRIP
360
34B
  0
DICTIONARY
  5
33A
330
37
100
AcDbDictionary
280
     1
281
     1
  3
ACAD_XREC_ROUNDTRIP
360
33B
  0
DICTIONARY
  5
32C
330
30
100
AcDbDictionary
280
     1
281
     1
  3
ACAD_XREC_ROUNDTRIP
360
32D
  0
DICTIONARY
  5
34C
330
40
100
AcDbDictionary
280
     1
281
     1
  3
ACAD_XREC_ROUNDTRIP
360
34D
  0
XRECORD
  5
356
102
{ACAD_REACTORS
330
355
102
}
330
355
100
AcDbXrecord
280
     1
102
ACAD_ROUNDTRIP_2010_MLEADER_STYLE
  0
CELLSTYLEMAP
  5
353
102
{ACAD_REACTORS
330
352
102
}
330
352
100
AcDbCellStyleMap
 90
        3
300
CELLSTYLE
  1
TABLEFORMAT_BEGIN
 90
        5
170
     1
 91
        0
 92
    32768
 62
   257
 93
        1
300
CONTENTFORMAT
  1
CONTENTFORMAT_BEGIN
 90
        0
 91
        0
 92
        4
 93
        0
300

 40
0.0
140
1.0
 94
        5
 62
     0
340
11
144
0.25
309
CONTENTFORMAT_END
171
     1
301
MARGIN
  1
CELLMARGIN_BEGIN
 40
0.06
 40
0.06
 40
0.06
 40
0.06
 40
0.06
 40
0.06
309
CELLMARGIN_END
 94
        6
 95
        1
302
GRIDFORMAT
  1
GRIDFORMAT_BEGIN
 90
        0
 91
        1
 62
     0
 92
       -2
340
14
 93
        0
 40
0.045
309
GRIDFORMAT_END
 95
        2
302
GRIDFORMAT
  1
GRIDFORMAT_BEGIN
 90
        0
 91
        1
 62
     0
 92
       -2
340
14
 93
        0
 40
0.045
309
GRIDFORMAT_END
 95
        4
302
GRIDFORMAT
  1
GRIDFORMAT_BEGIN
 90
        0
 91
        1
 62
     0
 92
       -2
340
14
 93
        0
 40
0.045
309
GRIDFORMAT_END
 95
        8
302
GRIDFORMAT
  1
GRIDFORMAT_BEGIN
 90
        0
 91
        1
 62
     0
 92
       -2
340
14
 93
        0
 40
0.045
309
GRIDFORMAT_END
 95
       16
302
GRIDFORMAT
  1
GRIDFORMAT_BEGIN
 90
        0
 91
        1
 62
     0
 92
       -2
340
14
 93
        0
 40
0.045
309
GRIDFORMAT_END
 95
       32
302
GRIDFORMAT
  1
GRIDFORMAT_BEGIN
 90
        0
 91
        1
 62
     0
 92
       -2
340
14
 93
        0
 40
0.045
309
GRIDFORMAT_END
309
TABLEFORMAT_END
  1
CELLSTYLE_BEGIN
 90
        1
 91
        1
300
_TITLE
309
CELLSTYLE_END
300
CELLSTYLE
  1
TABLEFORMAT_BEGIN
 90
        5
170
     1
 91
        0
 92
        0
 62
   257
 93
        1
300
CONTENTFORMAT
  1
CONTENTFORMAT_BEGIN
 90
        0
 91
        0
 92
        4
 93
        0
300

 40
0.0
140
1.0
 94
        5
 62
     0
340
11
144
0.18
309
CONTENTFORMAT_END
171
     1
301
MARGIN
  1
CELLMARGIN_BEGIN
 40
0.06
 40
0.06
 40
0.06
 40
0.06
 40
0.06
 40
0.06
309
CELLMARGIN_END
 94
        6
 95
        1
302
GRIDFORMAT
  1
GRIDFORMAT_BEGIN
 90
        0
 91
        1
 62
     0
 92
       -2
340
14
 93
        0
 40
0.045
309
GRIDFORMAT_END
 95
        2
302
GRIDFORMAT
  1
GRIDFORMAT_BEGIN
 90
        0
 91
        1
 62
     0
 92
       -2
340
14
 93
        0
 40
0.045
309
GRIDFORMAT_END
 95
        4
302
GRIDFORMAT
  1
GRIDFORMAT_BEGIN
 90
        0
 91
        1
 62
     0
 92
       -2
340
14
 93
        0
 40
0.045
309
GRIDFORMAT_END
 95
        8
302
GRIDFORMAT
  1
GRIDFORMAT_BEGIN
 90
        0
 91
        1
 62
     0
 92
       -2
340
14
 93
        0
 40
0.045
309
GRIDFORMAT_END
 95
       16
302
GRIDFORMAT
  1
GRIDFORMAT_BEGIN
 90
        0
 91
        1
 62
     0
 92
       -2
340
14
 93
        0
 40
0.045
309
GRIDFORMAT_END
 95
       32
302
GRIDFORMAT
  1
GRIDFORMAT_BEGIN
 90
        0
 91
        1
 62
     0
 92
       -2
340
14
 93
        0
 40
0.045
309
GRIDFORMAT_END
309
TABLEFORMAT_END
  1
CELLSTYLE_BEGIN
 90
        2
 91
        1
300
_HEADER
309
CELLSTYLE_END
300
CELLSTYLE
  1
TABLEFORMAT_BEGIN
 90
        5
170
     1
 91
        0
 92
        0
 62
   257
 93
        1
300
CONTENTFORMAT
  1
CONTENTFORMAT_BEGIN
 90
        0
 91
        0
 92
        4
 93
        0
300

 40
0.0
140
1.0
 94
        2
 62
     0
340
11
144
0.18
309
CONTENTFORMAT_END
171
     1
301
MARGIN
  1
CELLMARGIN_BEGIN
 40
0.06
 40
0.06
 40
0.06
 40
0.06
 40
0.06
 40
0.06
309
CELLMARGIN_END
 94
        6
 95
        1
302
GRIDFORMAT
  1
GRIDFORMAT_BEGIN
 90
        0
 91
        1
 62
     0
 92
       -2
340
14
 93
        0
 40
0.045
309
GRIDFORMAT_END
 95
        2
302
GRIDFORMAT
  1
GRIDFORMAT_BEGIN
 90
        0
 91
        1
 62
     0
 92
       -2
340
14
 93
        0
 40
0.045
309
GRIDFORMAT_END
 95
        4
302
GRIDFORMAT
  1
GRIDFORMAT_BEGIN
 90
        0
 91
        1
 62
     0
 92
       -2
340
14
 93
        0
 40
0.045
309
GRIDFORMAT_END
 95
        8
302
GRIDFORMAT
  1
GRIDFORMAT_BEGIN
 90
        0
 91
        1
 62
     0
 92
       -2
340
14
 93
        0
 40
0.045
309
GRIDFORMAT_END
 95
       16
302
GRIDFORMAT
  1
GRIDFORMAT_BEGIN
 90
        0
 91
        1
 62
     0
 92
       -2
340
14
 93
        0
 40
0.045
309
GRIDFORMAT_END
 95
       32
302
GRIDFORMAT
  1
GRIDFORMAT_BEGIN
 90
        0
 91
        1
 62
     0
 92
       -2
340
14
 93
        0
 40
0.045
309
GRIDFORMAT_END
309
TABLEFORMAT_END
  1
CELLSTYLE_BEGIN
 90
        3
 91
        2
300
_DATA
309
CELLSTYLE_END
  0
XRECORD
  5
32B
102
{ACAD_REACTORS
330
32A
102
}
330
32A
100
AcDbXrecord
280
     1
102
RTVSPropertyOp0
 70
     1
102
RTVSPropertyOp1
 70
     1
102
RTVSPropertyOp2
 70
     1
102
RTVSPropertyOp3
 70
     1
102
RTVSPropertyOp4
 70
     1
102
RTVSPropertyOp5
 70
     1
102
RTVSPropertyOp6
 70
     1
102
RTVSPropertyOp7
 70
     1
102
RTVSPropertyOp8
 70
     1
102
RTVSPropertyOp9
 70
     1
102
RTVSPropertyOp10
 70
     1
102
RTVSPropertyOp11
 70
     1
102
RTVSPropertyOp12
 70
     1
102
RTVSPropertyOp13
 70
     1
102
RTVSPropertyOp14
 70
     1
102
RTVSPropertyOp15
 70
     1
102
RTVSPropertyOp16
 70
     1
102
RTVSPropertyOp17
 70
     1
102
RTVSPropertyOp18
 70
     1
102
RTVSPropertyOp19
 70
     1
102
RTVSPropertyOp20
 70
     1
102
RTVSPropertyOp21
 70
     1
102
RTVSPropertyOp22
 70
     1
102
RTVSPropertyOp23
 70
     1
102
RTVSPropertyOp24
 70
     1
102
RTVSPropertyOp25
 70
     1
102
RTVSPropertyOp26
 70
     1
102
RTVSPropertyOp27
 70
     1
102
RTVSPropertyOp28
 70
     1
102
RTVSPropertyOp29
 70
     1
102
RTVSPropertyOp30
 70
     1
102
RTVSPropertyOp31
 70
     1
102
RTVSPropertyOp32
 70
     1
102
RTVSPropertyOp33
 70
     1
102
RTVSPropertyOp34
 70
     1
102
RTVSPropertyOp35
 70
     1
102
RTVSPropertyOp36
 70
     1
102
RTVSPropertyOp37
 70
     1
102
RTVSPropertyOp38
 70
     1
102
RTVSPropertyOp39
 70
     1
102
RTVSPropertyOp40
 70
     1
102
RTVSPropertyOp41
 70
     1
102
RTVSPropertyOp42
 70
     1
102
RTVSPropertyOp43
 70
     1
102
RTVSPropertyOp44
 70
     1
102
RTVSPropertyOp45
 70
     1
102
RTVSPropertyOp46
 70
     1
102
RTVSPropertyOp47
 70
     1
102
RTVSPropertyOp48
 70
     1
102
RTVSPropertyOp49
 70
     1
102
RTVSPropertyOp50
 70
     1
102
RTVSPropertyOp51
 70
     0
102
RTVSPropertyOp52
 70
     0
102
RTVSPropertyOp53
 70
     1
102
RTVSPropertyOp54
 70
     1
102
RTVSPropertyOp55
 70
     1
102
RTVSPropertyOp56
 70
     1
102
RTVSPropertyOp57
 70
     1
102
RTVSPost2010Prop28
280
     1
102
RTVSPost2010PropOp28
 70
     1
102
RTVSPost2010Prop29
280
     1
102
RTVSPost2010PropOp29
 70
     1
102
RTVSPost2010Prop30
280
     0
102
RTVSPost2010PropOp30
 70
     1
102
RTVSPost2010Prop31
280
     0
102
RTVSPost2010PropOp31
 70
     1
102
RTVSPost2010Prop32
280
     0
102
RTVSPost2010PropOp32
 70
     1
102
RTVSPost2010Prop33
280
     0
102
RTVSPost2010PropOp33
 70
     1
102
RTVSPost2010Prop34
280
     0
102
RTVSPost2010PropOp34
 70
     1
102
RTVSPost2010Prop35
280
     0
102
RTVSPost2010PropOp35
 70
     1
102
RTVSPost2010Prop36
280
     0
102
RTVSPost2010PropOp36
 70
     1
102
RTVSPost2010Prop37
 90
       50
102
RTVSPost2010PropOp37
 70
     1
102
RTVSPost2010Prop38
140
0.0
102
RTVSPost2010PropOp38
 70
     1
102
RTVSPost2010Prop39
140
1.0
102
RTVSPost2010PropOp39
 70
     1
102
RTVSPost2010Prop40
 90
        0
102
RTVSPost2010PropOp40
 70
     1
102
RTVSPost2010Prop41ColorIndex
 90
       18
102
RTVSPost2010Prop41ColorRGB
 90
        0
102
RTVSPost2010PropOp41
 70
     1
102
RTVSPost2010Prop42
 90
       50
102
RTVSPost2010PropOp42
 70
     1
102
RTVSPost2010Prop43
 90
        3
102
RTVSPost2010PropOp43
 70
     1
102
RTVSPost2010Prop44ColorIndex
 90
        5
102
RTVSPost2010Prop44ColorRGB
 90
      255
102
RTVSPost2010PropOp44
 70
     1
102
RTVSPost2010Prop45
280
     0
102
RTVSPost2010PropOp45
 70
     1
102
RTVSPost2010Prop46
 90
       50
102
RTVSPost2010PropOp46
 70
     1
102
RTVSPost2010Prop47
 90
       50
102
RTVSPost2010PropOp47
 70
     1
102
RTVSPost2010Prop48
 90
       50
102
RTVSPost2010PropOp48
 70
     1
102
RTVSPost2010Prop49
280
     0
102
RTVSPost2010PropOp49
 70
     1
102
RTVSPost2010Prop50
 90
       50
102
RTVSPost2010PropOp50
 70
     1
102
RTVSPost2010Prop51ColorIndex
 90
      256
102
RTVSPost2010Prop51ColorRGB
 90
-16777216
102
RTVSPost2010PropOp51
 70
     0
102
RTVSPost2010Prop52
140
1.0
102
RTVSPost2010PropOp52
 70
     0
102
RTVSPost2010Prop53
 90
        2
102
RTVSPost2010PropOp53
 70
     1
102
RTVSPost2010Prop54
  1
strokes_ogs.tif
102
RTVSPost2010PropOp54
 70
     1
102
RTVSPost2010Prop55
280
     0
102
RTVSPost2010PropOp55
 70
     1
102
RTVSPost2010Prop56
140
1.0
102
RTVSPost2010PropOp56
 70
     1
102
RTVSPost2010Prop57
140
1.0
102
RTVSPost2010PropOp57
 70
     1
  0
XRECORD
  5
331
102
{ACAD_REACTORS
330
330
102
}
330
330
100
AcDbXrecord
280
     1
102
RTVSPropertyOp0
 70
     1
102
RTVSPropertyOp1
 70
     1
102
RTVSPropertyOp2
 70
     1
102
RTVSPropertyOp3
 70
     1
102
RTVSPropertyOp4
 70
     1
102
RTVSPropertyOp5
 70
     1
102
RTVSPropertyOp6
 70
     1
102
RTVSPropertyOp7
 70
     1
102
RTVSPropertyOp8
 70
     1
102
RTVSPropertyOp9
 70
     1
102
RTVSPropertyOp10
 70
     1
102
RTVSPropertyOp11
 70
     1
102
RTVSPropertyOp12
 70
     1
102
RTVSPropertyOp13
 70
     1
102
RTVSPropertyOp14
 70
     1
102
RTVSPropertyOp15
 70
     1
102
RTVSPropertyOp16
 70
     1
102
RTVSPropertyOp17
 70
     1
102
RTVSPropertyOp18
 70
     1
102
RTVSPropertyOp19
 70
     1
102
RTVSPropertyOp20
 70
     1
102
RTVSPropertyOp21
 70
     1
102
RTVSPropertyOp22
 70
     1
102
RTVSPropertyOp23
 70
     1
102
RTVSPropertyOp24
 70
     1
102
RTVSPropertyOp25
 70
     1
102
RTVSPropertyOp26
 70
     1
102
RTVSPropertyOp27
 70
     1
102
RTVSPropertyOp28
 70
     1
102
RTVSPropertyOp29
 70
     1
102
RTVSPropertyOp30
 70
     1
102
RTVSPropertyOp31
 70
     1
102
RTVSPropertyOp32
 70
     1
102
RTVSPropertyOp33
 70
     1
102
RTVSPropertyOp34
 70
     1
102
RTVSPropertyOp35
 70
     1
102
RTVSPropertyOp36
 70
     1
102
RTVSPropertyOp37
 70
     1
102
RTVSPropertyOp38
 70
     1
102
RTVSPropertyOp39
 70
     1
102
RTVSPropertyOp40
 70
     1
102
RTVSPropertyOp41
 70
     1
102
RTVSPropertyOp42
 70
     1
102
RTVSPropertyOp43
 70
     1
102
RTVSPropertyOp44
 70
     1
102
RTVSPropertyOp45
 70
     1
102
RTVSPropertyOp46
 70
     1
102
RTVSPropertyOp47
 70
     1
102
RTVSPropertyOp48
 70
     1
102
RTVSPropertyOp49
 70
     1
102
RTVSPropertyOp50
 70
     1
102
RTVSPropertyOp51
 70
     0
102
RTVSPropertyOp52
 70
     0
102
RTVSPropertyOp53
 70
     1
102
RTVSPropertyOp54
 70
     1
102
RTVSPropertyOp55
 70
     1
102
RTVSPropertyOp56
 70
     1
102
RTVSPropertyOp57
 70
     1
102
RTVSPost2010Prop28
280
     0
102
RTVSPost2010PropOp28
 70
     1
102
RTVSPost2010Prop29
280
     1
102
RTVSPost2010PropOp29
 70
     1
102
RTVSPost2010Prop30
280
     1
102
RTVSPost2010PropOp30
 70
     1
102
RTVSPost2010Prop31
280
     0
102
RTVSPost2010PropOp31
 70
     1
102
RTVSPost2010Prop32
280
     0
102
RTVSPost2010PropOp32
 70
     1
102
RTVSPost2010Prop33
280
     0
102
RTVSPost2010PropOp33
 70
     1
102
RTVSPost2010Prop34
280
     0
102
RTVSPost2010PropOp34
 70
     1
102
RTVSPost2010Prop35
280
     0
102
RTVSPost2010PropOp35
 70
     1
102
RTVSPost2010Prop36
280
     0
102
RTVSPost2010PropOp36
 70
     1
102
RTVSPost2010Prop37
 90
       50
102
RTVSPost2010PropOp37
 70
     1
102
RTVSPost2010Prop38
140
0.0
102
RTVSPost2010PropOp38
 70
     1
102
RTVSPost2010Prop39
140
1.0
102
RTVSPost2010PropOp39
 70
     1
102
RTVSPost2010Prop40
 90
        0
102
RTVSPost2010PropOp40
 70
     1
102
RTVSPost2010Prop41ColorIndex
 90
       18
102
RTVSPost2010Prop41ColorRGB
 90
        0
102
RTVSPost2010PropOp41
 70
     1
102
RTVSPost2010Prop42
 90
       50
102
RTVSPost2010PropOp42
 70
     1
102
RTVSPost2010Prop43
 90
        3
102
RTVSPost2010PropOp43
 70
     1
102
RTVSPost2010Prop44ColorIndex
 90
        5
102
RTVSPost2010Prop44ColorRGB
 90
      255
102
RTVSPost2010PropOp44
 70
     1
102
RTVSPost2010Prop45
280
     0
102
RTVSPost2010PropOp45
 70
     1
102
RTVSPost2010Prop46
 90
       50
102
RTVSPost2010PropOp46
 70
     1
102
RTVSPost2010Prop47
 90
       50
102
RTVSPost2010PropOp47
 70
     1
102
RTVSPost2010Prop48
 90
       50
102
RTVSPost2010PropOp48
 70
     1
102
RTVSPost2010Prop49
280
     0
102
RTVSPost2010PropOp49
 70
     1
102
RTVSPost2010Prop50
 90
       50
102
RTVSPost2010PropOp50
 70
     1
102
RTVSPost2010Prop51ColorIndex
 90
      256
102
RTVSPost2010Prop51ColorRGB
 90
-16777216
102
RTVSPost2010PropOp51
 70
     0
102
RTVSPost2010Prop52
140
1.0
102
RTVSPost2010PropOp52
 70
     0
102
RTVSPost2010Prop53
 90
        2
102
RTVSPost2010PropOp53
 70
     1
102
RTVSPost2010Prop54
  1
strokes_ogs.tif
102
RTVSPost2010PropOp54
 70
     1
102
RTVSPost2010Prop55
280
     0
102
RTVSPost2010PropOp55
 70
     1
102
RTVSPost2010Prop56
140
1.0
102
RTVSPost2010PropOp56
 70
     1
102
RTVSPost2010Prop57
140
1.0
102
RTVSPost2010PropOp57
 70
     1
  0
XRECORD
  5
339
102
{ACAD_REACTORS
330
338
102
}
330
338
100
AcDbXrecord
280
     1
102
RTVSPropertyOp0
 70
     1
102
RTVSPropertyOp1
 70
     1
102
RTVSPropertyOp2
 70
     1
102
RTVSPropertyOp3
 70
     1
102
RTVSPropertyOp4
 70
     1
102
RTVSPropertyOp5
 70
     1
102
RTVSPropertyOp6
 70
     1
102
RTVSPropertyOp7
 70
     1
102
RTVSPropertyOp8
 70
     1
102
RTVSPropertyOp9
 70
     1
102
RTVSPropertyOp10
 70
     1
102
RTVSPropertyOp11
 70
     1
102
RTVSPropertyOp12
 70
     1
102
RTVSPropertyOp13
 70
     1
102
RTVSPropertyOp14
 70
     1
102
RTVSPropertyOp15
 70
     1
102
RTVSPropertyOp16
 70
     1
102
RTVSPropertyOp17
 70
     1
102
RTVSPropertyOp18
 70
     1
102
RTVSPropertyOp19
 70
     1
102
RTVSPropertyOp20
 70
     1
102
RTVSPropertyOp21
 70
     1
102
RTVSPropertyOp22
 70
     1
102
RTVSPropertyOp23
 70
     1
102
RTVSPropertyOp24
 70
     1
102
RTVSPropertyOp25
 70
     1
102
RTVSPropertyOp26
 70
     1
102
RTVSPropertyOp27
 70
     1
102
RTVSPropertyOp28
 70
     1
102
RTVSPropertyOp29
 70
     1
102
RTVSPropertyOp30
 70
     1
102
RTVSPropertyOp31
 70
     1
102
RTVSPropertyOp32
 70
     1
102
RTVSPropertyOp33
 70
     1
102
RTVSPropertyOp34
 70
     1
102
RTVSPropertyOp35
 70
     1
102
RTVSPropertyOp36
 70
     1
102
RTVSPropertyOp37
 70
     1
102
RTVSPropertyOp38
 70
     1
102
RTVSPropertyOp39
 70
     1
102
RTVSPropertyOp40
 70
     1
102
RTVSPropertyOp41
 70
     1
102
RTVSPropertyOp42
 70
     1
102
RTVSPropertyOp43
 70
     1
102
RTVSPropertyOp44
 70
     1
102
RTVSPropertyOp45
 70
     1
102
RTVSPropertyOp46
 70
     1
102
RTVSPropertyOp47
 70
     1
102
RTVSPropertyOp48
 70
     1
102
RTVSPropertyOp49
 70
     1
102
RTVSPropertyOp50
 70
     1
102
RTVSPropertyOp51
 70
     0
102
RTVSPropertyOp52
 70
     0
102
RTVSPropertyOp53
 70
     1
102
RTVSPropertyOp54
 70
     1
102
RTVSPropertyOp55
 70
     1
102
RTVSPropertyOp56
 70
     1
102
RTVSPropertyOp57
 70
     1
102
RTVSPost2010Prop28
280
     0
102
RTVSPost2010PropOp28
 70
     1
102
RTVSPost2010Prop29
280
     1
102
RTVSPost2010PropOp29
 70
     1
102
RTVSPost2010Prop30
280
     1
102
RTVSPost2010PropOp30
 70
     1
102
RTVSPost2010Prop31
280
     0
102
RTVSPost2010PropOp31
 70
     1
102
RTVSPost2010Prop32
280
     0
102
RTVSPost2010PropOp32
 70
     1
102
RTVSPost2010Prop33
280
     0
102
RTVSPost2010PropOp33
 70
     1
102
RTVSPost2010Prop34
280
     0
102
RTVSPost2010PropOp34
 70
     1
102
RTVSPost2010Prop35
280
     0
102
RTVSPost2010PropOp35
 70
     1
102
RTVSPost2010Prop36
280
     0
102
RTVSPost2010PropOp36
 70
     1
102
RTVSPost2010Prop37
 90
       50
102
RTVSPost2010PropOp37
 70
     1
102
RTVSPost2010Prop38
140
0.0
102
RTVSPost2010PropOp38
 70
     1
102
RTVSPost2010Prop39
140
1.0
102
RTVSPost2010PropOp39
 70
     1
102
RTVSPost2010Prop40
 90
        0
102
RTVSPost2010PropOp40
 70
     1
102
RTVSPost2010Prop41ColorIndex
 90
       18
102
RTVSPost2010Prop41ColorRGB
 90
        0
102
RTVSPost2010PropOp41
 70
     1
102
RTVSPost2010Prop42
 90
       50
102
RTVSPost2010PropOp42
 70
     1
102
RTVSPost2010Prop43
 90
        3
102
RTVSPost2010PropOp43
 70
     1
102
RTVSPost2010Prop44ColorIndex
 90
        5
102
RTVSPost2010Prop44ColorRGB
 90
      255
102
RTVSPost2010PropOp44
 70
     1
102
RTVSPost2010Prop45
280
     0
102
RTVSPost2010PropOp45
 70
     1
102
RTVSPost2010Prop46
 90
       50
102
RTVSPost2010PropOp46
 70
     1
102
RTVSPost2010Prop47
 90
       50
102
RTVSPost2010PropOp47
 70
     1
102
RTVSPost2010Prop48
 90
       50
102
RTVSPost2010PropOp48
 70
     1
102
RTVSPost2010Prop49
280
     0
102
RTVSPost2010PropOp49
 70
     1
102
RTVSPost2010Prop50
 90
       50
102
RTVSPost2010PropOp50
 70
     1
102
RTVSPost2010Prop51ColorIndex
 90
      256
102
RTVSPost2010Prop51ColorRGB
 90
-16777216
102
RTVSPost2010PropOp51
 70
     0
102
RTVSPost2010Prop52
140
1.0
102
RTVSPost2010PropOp52
 70
     0
102
RTVSPost2010Prop53
 90
        2
102
RTVSPost2010PropOp53
 70
     1
102
RTVSPost2010Prop54
  1
strokes_ogs.tif
102
RTVSPost2010PropOp54
 70
     1
102
RTVSPost2010Prop55
280
     0
102
RTVSPost2010PropOp55
 70
     1
102
RTVSPost2010Prop56
140
1.0
102
RTVSPost2010PropOp56
 70
     1
102
RTVSPost2010Prop57
140
1.0
102
RTVSPost2010PropOp57
 70
     1
  0
XRECORD
  5
341
102
{ACAD_REACTORS
330
340
102
}
330
340
100
AcDbXrecord
280
     1
102
RTVSPropertyOp0
 70
     1
102
RTVSPropertyOp1
 70
     1
102
RTVSPropertyOp2
 70
     1
102
RTVSPropertyOp3
 70
     1
102
RTVSPropertyOp4
 70
     1
102
RTVSPropertyOp5
 70
     1
102
RTVSPropertyOp6
 70
     1
102
RTVSPropertyOp7
 70
     1
102
RTVSPropertyOp8
 70
     1
102
RTVSPropertyOp9
 70
     1
102
RTVSPropertyOp10
 70
     1
102
RTVSPropertyOp11
 70
     1
102
RTVSPropertyOp12
 70
     1
102
RTVSPropertyOp13
 70
     1
102
RTVSPropertyOp14
 70
     1
102
RTVSPropertyOp15
 70
     1
102
RTVSPropertyOp16
 70
     1
102
RTVSPropertyOp17
 70
     1
102
RTVSPropertyOp18
 70
     1
102
RTVSPropertyOp19
 70
     1
102
RTVSPropertyOp20
 70
     1
102
RTVSPropertyOp21
 70
     1
102
RTVSPropertyOp22
 70
     1
102
RTVSPropertyOp23
 70
     1
102
RTVSPropertyOp24
 70
     1
102
RTVSPropertyOp25
 70
     1
102
RTVSPropertyOp26
 70
     1
102
RTVSPropertyOp27
 70
     1
102
RTVSPropertyOp28
 70
     1
102
RTVSPropertyOp29
 70
     1
102
RTVSPropertyOp30
 70
     1
102
RTVSPropertyOp31
 70
     1
102
RTVSPropertyOp32
 70
     1
102
RTVSPropertyOp33
 70
     1
102
RTVSPropertyOp34
 70
     1
102
RTVSPropertyOp35
 70
     1
102
RTVSPropertyOp36
 70
     1
102
RTVSPropertyOp37
 70
     1
102
RTVSPropertyOp38
 70
     1
102
RTVSPropertyOp39
 70
     1
102
RTVSPropertyOp40
 70
     1
102
RTVSPropertyOp41
 70
     1
102
RTVSPropertyOp42
 70
     1
102
RTVSPropertyOp43
 70
     1
102
RTVSPropertyOp44
 70
     1
102
RTVSPropertyOp45
 70
     1
102
RTVSPropertyOp46
 70
     1
102
RTVSPropertyOp47
 70
     1
102
RTVSPropertyOp48
 70
     1
102
RTVSPropertyOp49
 70
     1
102
RTVSPropertyOp50
 70
     1
102
RTVSPropertyOp51
 70
     0
102
RTVSPropertyOp52
 70
     0
102
RTVSPropertyOp53
 70
     1
102
RTVSPropertyOp54
 70
     1
102
RTVSPropertyOp55
 70
     1
102
RTVSPropertyOp56
 70
     1
102
RTVSPropertyOp57
 70
     1
102
RTVSPost2010Prop28
280
     0
102
RTVSPost2010PropOp28
 70
     1
102
RTVSPost2010Prop29
280
     1
102
RTVSPost2010PropOp29
 70
     1
102
RTVSPost2010Prop30
280
     1
102
RTVSPost2010PropOp30
 70
     1
102
RTVSPost2010Prop31
280
     0
102
RTVSPost2010PropOp31
 70
     1
102
RTVSPost2010Prop32
280
     0
102
RTVSPost2010PropOp32
 70
     1
102
RTVSPost2010Prop33
280
     0
102
RTVSPost2010PropOp33
 70
     1
102
RTVSPost2010Prop34
280
     0
102
RTVSPost2010PropOp34
 70
     1
102
RTVSPost2010Prop35
280
     0
102
RTVSPost2010PropOp35
 70
     1
102
RTVSPost2010Prop36
280
     0
102
RTVSPost2010PropOp36
 70
     1
102
RTVSPost2010Prop37
 90
       50
102
RTVSPost2010PropOp37
 70
     1
102
RTVSPost2010Prop38
140
0.0
102
RTVSPost2010PropOp38
 70
     1
102
RTVSPost2010Prop39
140
1.0
102
RTVSPost2010PropOp39
 70
     1
102
RTVSPost2010Prop40
 90
        0
102
RTVSPost2010PropOp40
 70
     1
102
RTVSPost2010Prop41ColorIndex
 90
       18
102
RTVSPost2010Prop41ColorRGB
 90
        0
102
RTVSPost2010PropOp41
 70
     1
102
RTVSPost2010Prop42
 90
       50
102
RTVSPost2010PropOp42
 70
     1
102
RTVSPost2010Prop43
 90
        3
102
RTVSPost2010PropOp43
 70
     1
102
RTVSPost2010Prop44ColorIndex
 90
        5
102
RTVSPost2010Prop44ColorRGB
 90
      255
102
RTVSPost2010PropOp44
 70
     1
102
RTVSPost2010Prop45
280
     0
102
RTVSPost2010PropOp45
 70
     1
102
RTVSPost2010Prop46
 90
       50
102
RTVSPost2010PropOp46
 70
     1
102
RTVSPost2010Prop47
 90
       50
102
RTVSPost2010PropOp47
 70
     1
102
RTVSPost2010Prop48
 90
       50
102
RTVSPost2010PropOp48
 70
     1
102
RTVSPost2010Prop49
280
     0
102
RTVSPost2010PropOp49
 70
     1
102
RTVSPost2010Prop50
 90
       50
102
RTVSPost2010PropOp50
 70
     1
102
RTVSPost2010Prop51ColorIndex
 90
      256
102
RTVSPost2010Prop51ColorRGB
 90
-16777216
102
RTVSPost2010PropOp51
 70
     0
102
RTVSPost2010Prop52
140
1.0
102
RTVSPost2010PropOp52
 70
     0
102
RTVSPost2010Prop53
 90
        2
102
RTVSPost2010PropOp53
 70
     1
102
RTVSPost2010Prop54
  1
strokes_ogs.tif
102
RTVSPost2010PropOp54
 70
     1
102
RTVSPost2010Prop55
280
     0
102
RTVSPost2010PropOp55
 70
     1
102
RTVSPost2010Prop56
140
1.0
102
RTVSPost2010PropOp56
 70
     1
102
RTVSPost2010Prop57
140
1.0
102
RTVSPost2010PropOp57
 70
     1
  0
XRECORD
  5
335
102
{ACAD_REACTORS
330
334
102
}
330
334
100
AcDbXrecord
280
     1
102
RTVSPropertyOp0
 70
     1
102
RTVSPropertyOp1
 70
     1
102
RTVSPropertyOp2
 70
     1
102
RTVSPropertyOp3
 70
     1
102
RTVSPropertyOp4
 70
     1
102
RTVSPropertyOp5
 70
     1
102
RTVSPropertyOp6
 70
     1
102
RTVSPropertyOp7
 70
     1
102
RTVSPropertyOp8
 70
     1
102
RTVSPropertyOp9
 70
     1
102
RTVSPropertyOp10
 70
     1
102
RTVSPropertyOp11
 70
     1
102
RTVSPropertyOp12
 70
     1
102
RTVSPropertyOp13
 70
     1
102
RTVSPropertyOp14
 70
     1
102
RTVSPropertyOp15
 70
     1
102
RTVSPropertyOp16
 70
     1
102
RTVSPropertyOp17
 70
     1
102
RTVSPropertyOp18
 70
     1
102
RTVSPropertyOp19
 70
     1
102
RTVSPropertyOp20
 70
     1
102
RTVSPropertyOp21
 70
     1
102
RTVSPropertyOp22
 70
     1
102
RTVSPropertyOp23
 70
     1
102
RTVSPropertyOp24
 70
     1
102
RTVSPropertyOp25
 70
     1
102
RTVSPropertyOp26
 70
     1
102
RTVSPropertyOp27
 70
     1
102
RTVSPropertyOp28
 70
     1
102
RTVSPropertyOp29
 70
     1
102
RTVSPropertyOp30
 70
     1
102
RTVSPropertyOp31
 70
     1
102
RTVSPropertyOp32
 70
     1
102
RTVSPropertyOp33
 70
     1
102
RTVSPropertyOp34
 70
     1
102
RTVSPropertyOp35
 70
     1
102
RTVSPropertyOp36
 70
     1
102
RTVSPropertyOp37
 70
     1
102
RTVSPropertyOp38
 70
     1
102
RTVSPropertyOp39
 70
     1
102
RTVSPropertyOp40
 70
     1
102
RTVSPropertyOp41
 70
     1
102
RTVSPropertyOp42
 70
     1
102
RTVSPropertyOp43
 70
     1
102
RTVSPropertyOp44
 70
     1
102
RTVSPropertyOp45
 70
     1
102
RTVSPropertyOp46
 70
     1
102
RTVSPropertyOp47
 70
     1
102
RTVSPropertyOp48
 70
     1
102
RTVSPropertyOp49
 70
     1
102
RTVSPropertyOp50
 70
     1
102
RTVSPropertyOp51
 70
     0
102
RTVSPropertyOp52
 70
     0
102
RTVSPropertyOp53
 70
     1
102
RTVSPropertyOp54
 70
     1
102
RTVSPropertyOp55
 70
     1
102
RTVSPropertyOp56
 70
     1
102
RTVSPropertyOp57
 70
     1
102
RTVSPost2010Prop28
280
     0
102
RTVSPost2010PropOp28
 70
     1
102
RTVSPost2010Prop29
280
     1
102
RTVSPost2010PropOp29
 70
     1
102
RTVSPost2010Prop30
280
     1
102
RTVSPost2010PropOp30
 70
     1
102
RTVSPost2010Prop31
280
     0
102
RTVSPost2010PropOp31
 70
     1
102
RTVSPost2010Prop32
280
     0
102
RTVSPost2010PropOp32
 70
     1
102
RTVSPost2010Prop33
280
     0
102
RTVSPost2010PropOp33
 70
     1
102
RTVSPost2010Prop34
280
     0
102
RTVSPost2010PropOp34
 70
     1
102
RTVSPost2010Prop35
280
     0
102
RTVSPost2010PropOp35
 70
     1
102
RTVSPost2010Prop36
280
     0
102
RTVSPost2010PropOp36
 70
     1
102
RTVSPost2010Prop37
 90
       50
102
RTVSPost2010PropOp37
 70
     1
102
RTVSPost2010Prop38
140
0.0
102
RTVSPost2010PropOp38
 70
     1
102
RTVSPost2010Prop39
140
1.0
102
RTVSPost2010PropOp39
 70
     1
102
RTVSPost2010Prop40
 90
        0
102
RTVSPost2010PropOp40
 70
     1
102
RTVSPost2010Prop41ColorIndex
 90
       18
102
RTVSPost2010Prop41ColorRGB
 90
        0
102
RTVSPost2010PropOp41
 70
     1
102
RTVSPost2010Prop42
 90
       50
102
RTVSPost2010PropOp42
 70
     1
102
RTVSPost2010Prop43
 90
        3
102
RTVSPost2010PropOp43
 70
     1
102
RTVSPost2010Prop44ColorIndex
 90
        5
102
RTVSPost2010Prop44ColorRGB
 90
      255
102
RTVSPost2010PropOp44
 70
     1
102
RTVSPost2010Prop45
280
     0
102
RTVSPost2010PropOp45
 70
     1
102
RTVSPost2010Prop46
 90
       50
102
RTVSPost2010PropOp46
 70
     1
102
RTVSPost2010Prop47
 90
       50
102
RTVSPost2010PropOp47
 70
     1
102
RTVSPost2010Prop48
 90
       50
102
RTVSPost2010PropOp48
 70
     1
102
RTVSPost2010Prop49
280
     0
102
RTVSPost2010PropOp49
 70
     1
102
RTVSPost2010Prop50
 90
       50
102
RTVSPost2010PropOp50
 70
     1
102
RTVSPost2010Prop51ColorIndex
 90
      256
102
RTVSPost2010Prop51ColorRGB
 90
-16777216
102
RTVSPost2010PropOp51
 70
     0
102
RTVSPost2010Prop52
140
1.0
102
RTVSPost2010PropOp52
 70
     0
102
RTVSPost2010Prop53
 90
        2
102
RTVSPost2010PropOp53
 70
     1
102
RTVSPost2010Prop54
  1
strokes_ogs.tif
102
RTVSPost2010PropOp54
 70
     1
102
RTVSPost2010Prop55
280
     0
102
RTVSPost2010PropOp55
 70
     1
102
RTVSPost2010Prop56
140
1.0
102
RTVSPost2010PropOp56
 70
     1
102
RTVSPost2010Prop57
140
1.0
102
RTVSPost2010PropOp57
 70
     1
  0
XRECORD
  5
337
102
{ACAD_REACTORS
330
336
102
}
330
336
100
AcDbXrecord
280
     1
102
RTVSPropertyOp0
 70
     1
102
RTVSPropertyOp1
 70
     1
102
RTVSPropertyOp2
 70
     1
102
RTVSPropertyOp3
 70
     1
102
RTVSPropertyOp4
 70
     1
102
RTVSPropertyOp5
 70
     1
102
RTVSPropertyOp6
 70
     1
102
RTVSPropertyOp7
 70
     1
102
RTVSPropertyOp8
 70
     1
102
RTVSPropertyOp9
 70
     1
102
RTVSPropertyOp10
 70
     1
102
RTVSPropertyOp11
 70
     1
102
RTVSPropertyOp12
 70
     1
102
RTVSPropertyOp13
 70
     1
102
RTVSPropertyOp14
 70
     1
102
RTVSPropertyOp15
 70
     1
102
RTVSPropertyOp16
 70
     1
102
RTVSPropertyOp17
 70
     1
102
RTVSPropertyOp18
 70
     1
102
RTVSPropertyOp19
 70
     1
102
RTVSPropertyOp20
 70
     1
102
RTVSPropertyOp21
 70
     1
102
RTVSPropertyOp22
 70
     1
102
RTVSPropertyOp23
 70
     1
102
RTVSPropertyOp24
 70
     1
102
RTVSPropertyOp25
 70
     1
102
RTVSPropertyOp26
 70
     1
102
RTVSPropertyOp27
 70
     1
102
RTVSPropertyOp28
 70
     1
102
RTVSPropertyOp29
 70
     1
102
RTVSPropertyOp30
 70
     1
102
RTVSPropertyOp31
 70
     1
102
RTVSPropertyOp32
 70
     1
102
RTVSPropertyOp33
 70
     1
102
RTVSPropertyOp34
 70
     1
102
RTVSPropertyOp35
 70
     1
102
RTVSPropertyOp36
 70
     1
102
RTVSPropertyOp37
 70
     1
102
RTVSPropertyOp38
 70
     1
102
RTVSPropertyOp39
 70
     1
102
RTVSPropertyOp40
 70
     1
102
RTVSPropertyOp41
 70
     1
102
RTVSPropertyOp42
 70
     1
102
RTVSPropertyOp43
 70
     1
102
RTVSPropertyOp44
 70
     1
102
RTVSPropertyOp45
 70
     1
102
RTVSPropertyOp46
 70
     1
102
RTVSPropertyOp47
 70
     1
102
RTVSPropertyOp48
 70
     1
102
RTVSPropertyOp49
 70
     1
102
RTVSPropertyOp50
 70
     1
102
RTVSPropertyOp51
 70
     0
102
RTVSPropertyOp52
 70
     0
102
RTVSPropertyOp53
 70
     1
102
RTVSPropertyOp54
 70
     1
102
RTVSPropertyOp55
 70
     1
102
RTVSPropertyOp56
 70
     1
102
RTVSPropertyOp57
 70
     1
102
RTVSPost2010Prop28
280
     0
102
RTVSPost2010PropOp28
 70
     1
102
RTVSPost2010Prop29
280
     1
102
RTVSPost2010PropOp29
 70
     1
102
RTVSPost2010Prop30
280
     1
102
RTVSPost2010PropOp30
 70
     1
102
RTVSPost2010Prop31
280
     0
102
RTVSPost2010PropOp31
 70
     1
102
RTVSPost2010Prop32
280
     0
102
RTVSPost2010PropOp32
 70
     1
102
RTVSPost2010Prop33
280
     0
102
RTVSPost2010PropOp33
 70
     1
102
RTVSPost2010Prop34
280
     0
102
RTVSPost2010PropOp34
 70
     1
102
RTVSPost2010Prop35
280
     0
102
RTVSPost2010PropOp35
 70
     1
102
RTVSPost2010Prop36
280
     0
102
RTVSPost2010PropOp36
 70
     1
102
RTVSPost2010Prop37
 90
       50
102
RTVSPost2010PropOp37
 70
     1
102
RTVSPost2010Prop38
140
0.0
102
RTVSPost2010PropOp38
 70
     1
102
RTVSPost2010Prop39
140
1.0
102
RTVSPost2010PropOp39
 70
     1
102
RTVSPost2010Prop40
 90
        0
102
RTVSPost2010PropOp40
 70
     1
102
RTVSPost2010Prop41ColorIndex
 90
       18
102
RTVSPost2010Prop41ColorRGB
 90
        0
102
RTVSPost2010PropOp41
 70
     1
102
RTVSPost2010Prop42
 90
       50
102
RTVSPost2010PropOp42
 70
     1
102
RTVSPost2010Prop43
 90
        3
102
RTVSPost2010PropOp43
 70
     1
102
RTVSPost2010Prop44ColorIndex
 90
        5
102
RTVSPost2010Prop44ColorRGB
 90
      255
102
RTVSPost2010PropOp44
 70
     1
102
RTVSPost2010Prop45
280
     0
102
RTVSPost2010PropOp45
 70
     1
102
RTVSPost2010Prop46
 90
       50
102
RTVSPost2010PropOp46
 70
     1
102
RTVSPost2010Prop47
 90
       50
102
RTVSPost2010PropOp47
 70
     1
102
RTVSPost2010Prop48
 90
       50
102
RTVSPost2010PropOp48
 70
     1
102
RTVSPost2010Prop49
280
     0
102
RTVSPost2010PropOp49
 70
     1
102
RTVSPost2010Prop50
 90
       50
102
RTVSPost2010PropOp50
 70
     1
102
RTVSPost2010Prop51ColorIndex
 90
      256
102
RTVSPost2010Prop51ColorRGB
 90
-16777216
102
RTVSPost2010PropOp51
 70
     0
102
RTVSPost2010Prop52
140
1.0
102
RTVSPost2010PropOp52
 70
     0
102
RTVSPost2010Prop53
 90
        2
102
RTVSPost2010PropOp53
 70
     1
102
RTVSPost2010Prop54
  1
strokes_ogs.tif
102
RTVSPost2010PropOp54
 70
     1
102
RTVSPost2010Prop55
280
     0
102
RTVSPost2010PropOp55
 70
     1
102
RTVSPost2010Prop56
140
1.0
102
RTVSPost2010PropOp56
 70
     1
102
RTVSPost2010Prop57
140
1.0
102
RTVSPost2010PropOp57
 70
     1
  0
XRECORD
  5
347
102
{ACAD_REACTORS
330
346
102
}
330
346
100
AcDbXrecord
280
     1
102
RTVSPropertyOp0
 70
     0
102
RTVSPropertyOp1
 70
     0
102
RTVSPropertyOp2
 70
     0
102
RTVSPropertyOp3
 70
     0
102
RTVSPropertyOp4
 70
     0
102
RTVSPropertyOp5
 70
     0
102
RTVSPropertyOp6
 70
     0
102
RTVSPropertyOp7
 70
     0
102
RTVSPropertyOp8
 70
     0
102
RTVSPropertyOp9
 70
     0
102
RTVSPropertyOp10
 70
     0
102
RTVSPropertyOp11
 70
     0
102
RTVSPropertyOp12
 70
     0
102
RTVSPropertyOp13
 70
     0
102
RTVSPropertyOp14
 70
     2
102
RTVSPropertyOp15
 70
     0
102
RTVSPropertyOp16
 70
     0
102
RTVSPropertyOp17
 70
     0
102
RTVSPropertyOp18
 70
     0
102
RTVSPropertyOp19
 70
     0
102
RTVSPropertyOp20
 70
     0
102
RTVSPropertyOp21
 70
     0
102
RTVSPropertyOp22
 70
     0
102
RTVSPropertyOp23
 70
     0
102
RTVSPropertyOp24
 70
     0
102
RTVSPropertyOp25
 70
     0
102
RTVSPropertyOp26
 70
     0
102
RTVSPropertyOp27
 70
     0
102
RTVSPropertyOp28
 70
     0
102
RTVSPropertyOp29
 70
     0
102
RTVSPropertyOp30
 70
     0
102
RTVSPropertyOp31
 70
     0
102
RTVSPropertyOp32
 70
     0
102
RTVSPropertyOp33
 70
     0
102
RTVSPropertyOp34
 70
     0
102
RTVSPropertyOp35
 70
     0
102
RTVSPropertyOp36
 70
     0
102
RTVSPropertyOp37
 70
     0
102
RTVSPropertyOp38
 70
     0
102
RTVSPropertyOp39
 70
     0
102
RTVSPropertyOp40
 70
     0
102
RTVSPropertyOp41
 70
     0
102
RTVSPropertyOp42
 70
     0
102
RTVSPropertyOp43
 70
     0
102
RTVSPropertyOp44
 70
     0
102
RTVSPropertyOp45
 70
     0
102
RTVSPropertyOp46
 70
     0
102
RTVSPropertyOp47
 70
     0
102
RTVSPropertyOp48
 70
     0
102
RTVSPropertyOp49
 70
     0
102
RTVSPropertyOp50
 70
     0
102
RTVSPropertyOp51
 70
     0
102
RTVSPropertyOp52
 70
     0
102
RTVSPropertyOp53
 70
     0
102
RTVSPropertyOp54
 70
     0
102
RTVSPropertyOp55
 70
     0
102
RTVSPropertyOp56
 70
     0
102
RTVSPropertyOp57
 70
     0
102
RTVSPost2010Prop28
280
     0
102
RTVSPost2010PropOp28
 70
     0
102
RTVSPost2010Prop29
280
     1
102
RTVSPost2010PropOp29
 70
     0
102
RTVSPost2010Prop30
280
     1
102
RTVSPost2010PropOp30
 70
     0
102
RTVSPost2010Prop31
280
     0
102
RTVSPost2010PropOp31
 70
     0
102
RTVSPost2010Prop32
280
     0
102
RTVSPost2010PropOp32
 70
     0
102
RTVSPost2010Prop33
280
     0
102
RTVSPost2010PropOp33
 70
     0
102
RTVSPost2010Prop34
280
     0
102
RTVSPost2010PropOp34
 70
     0
102
RTVSPost2010Prop35
280
     0
102
RTVSPost2010PropOp35
 70
     0
102
RTVSPost2010Prop36
280
     0
102
RTVSPost2010PropOp36
 70
     0
102
RTVSPost2010Prop37
 90
       50
102
RTVSPost2010PropOp37
 70
     0
102
RTVSPost2010Prop38
140
0.0
102
RTVSPost2010PropOp38
 70
     0
102
RTVSPost2010Prop39
140
1.0
102
RTVSPost2010PropOp39
 70
     0
102
RTVSPost2010Prop40
 90
        0
102
RTVSPost2010PropOp40
 70
     0
102
RTVSPost2010Prop41ColorIndex
 90
       18
102
RTVSPost2010Prop41ColorRGB
 90
        0
102
RTVSPost2010PropOp41
 70
     0
102
RTVSPost2010Prop42
 90
       50
102
RTVSPost2010PropOp42
 70
     0
102
RTVSPost2010Prop43
 90
        3
102
RTVSPost2010PropOp43
 70
     0
102
RTVSPost2010Prop44ColorIndex
 90
        5
102
RTVSPost2010Prop44ColorRGB
 90
      255
102
RTVSPost2010PropOp44
 70
     0
102
RTVSPost2010Prop45
280
     0
102
RTVSPost2010PropOp45
 70
     0
102
RTVSPost2010Prop46
 90
       50
102
RTVSPost2010PropOp46
 70
     0
102
RTVSPost2010Prop47
 90
       50
102
RTVSPost2010PropOp47
 70
     0
102
RTVSPost2010Prop48
 90
       50
102
RTVSPost2010PropOp48
 70
     0
102
RTVSPost2010Prop49
280
     0
102
RTVSPost2010PropOp49
 70
     0
102
RTVSPost2010Prop50
 90
       50
102
RTVSPost2010PropOp50
 70
     0
102
RTVSPost2010Prop51ColorIndex
 90
      256
102
RTVSPost2010Prop51ColorRGB
 90
-16777216
102
RTVSPost2010PropOp51
 70
     0
102
RTVSPost2010Prop52
140
1.0
102
RTVSPost2010PropOp52
 70
     0
102
RTVSPost2010Prop53
 90
        2
102
RTVSPost2010PropOp53
 70
     0
102
RTVSPost2010Prop54
  1
strokes_ogs.tif
102
RTVSPost2010PropOp54
 70
     0
102
RTVSPost2010Prop55
280
     0
102
RTVSPost2010PropOp55
 70
     0
102
RTVSPost2010Prop56
140
1.0
102
RTVSPost2010PropOp56
 70
     0
102
RTVSPost2010Prop57
140
1.0
102
RTVSPost2010PropOp57
 70
     0
  0
XRECORD
  5
33F
102
{ACAD_REACTORS
330
33E
102
}
330
33E
100
AcDbXrecord
280
     1
102
RTVSPropertyOp0
 70
     1
102
RTVSPropertyOp1
 70
     1
102
RTVSPropertyOp2
 70
     1
102
RTVSPropertyOp3
 70
     1
102
RTVSPropertyOp4
 70
     1
102
RTVSPropertyOp5
 70
     1
102
RTVSPropertyOp6
 70
     1
102
RTVSPropertyOp7
 70
     1
102
RTVSPropertyOp8
 70
     1
102
RTVSPropertyOp9
 70
     1
102
RTVSPropertyOp10
 70
     1
102
RTVSPropertyOp11
 70
     1
102
RTVSPropertyOp12
 70
     1
102
RTVSPropertyOp13
 70
     1
102
RTVSPropertyOp14
 70
     1
102
RTVSPropertyOp15
 70
     1
102
RTVSPropertyOp16
 70
     1
102
RTVSPropertyOp17
 70
     1
102
RTVSPropertyOp18
 70
     1
102
RTVSPropertyOp19
 70
     1
102
RTVSPropertyOp20
 70
     1
102
RTVSPropertyOp21
 70
     1
102
RTVSPropertyOp22
 70
     1
102
RTVSPropertyOp23
 70
     1
102
RTVSPropertyOp24
 70
     1
102
RTVSPropertyOp25
 70
     1
102
RTVSPropertyOp26
 70
     1
102
RTVSPropertyOp27
 70
     1
102
RTVSPropertyOp28
 70
     1
102
RTVSPropertyOp29
 70
     1
102
RTVSPropertyOp30
 70
     1
102
RTVSPropertyOp31
 70
     1
102
RTVSPropertyOp32
 70
     1
102
RTVSPropertyOp33
 70
     1
102
RTVSPropertyOp34
 70
     1
102
RTVSPropertyOp35
 70
     1
102
RTVSPropertyOp36
 70
     1
102
RTVSPropertyOp37
 70
     1
102
RTVSPropertyOp38
 70
     1
102
RTVSPropertyOp39
 70
     1
102
RTVSPropertyOp40
 70
     1
102
RTVSPropertyOp41
 70
     1
102
RTVSPropertyOp42
 70
     1
102
RTVSPropertyOp43
 70
     1
102
RTVSPropertyOp44
 70
     1
102
RTVSPropertyOp45
 70
     1
102
RTVSPropertyOp46
 70
     1
102
RTVSPropertyOp47
 70
     1
102
RTVSPropertyOp48
 70
     1
102
RTVSPropertyOp49
 70
     1
102
RTVSPropertyOp50
 70
     1
102
RTVSPropertyOp51
 70
     0
102
RTVSPropertyOp52
 70
     0
102
RTVSPropertyOp53
 70
     1
102
RTVSPropertyOp54
 70
     1
102
RTVSPropertyOp55
 70
     1
102
RTVSPropertyOp56
 70
     1
102
RTVSPropertyOp57
 70
     1
102
RTVSPost2010Prop28
280
     0
102
RTVSPost2010PropOp28
 70
     1
102
RTVSPost2010Prop29
280
     1
102
RTVSPost2010PropOp29
 70
     1
102
RTVSPost2010Prop30
280
     1
102
RTVSPost2010PropOp30
 70
     1
102
RTVSPost2010Prop31
280
     0
102
RTVSPost2010PropOp31
 70
     1
102
RTVSPost2010Prop32
280
     0
102
RTVSPost2010PropOp32
 70
     1
102
RTVSPost2010Prop33
280
     0
102
RTVSPost2010PropOp33
 70
     1
102
RTVSPost2010Prop34
280
     0
102
RTVSPost2010PropOp34
 70
     1
102
RTVSPost2010Prop35
280
     0
102
RTVSPost2010PropOp35
 70
     1
102
RTVSPost2010Prop36
280
     0
102
RTVSPost2010PropOp36
 70
     1
102
RTVSPost2010Prop37
 90
       50
102
RTVSPost2010PropOp37
 70
     1
102
RTVSPost2010Prop38
140
0.0
102
RTVSPost2010PropOp38
 70
     1
102
RTVSPost2010Prop39
140
1.0
102
RTVSPost2010PropOp39
 70
     1
102
RTVSPost2010Prop40
 90
        0
102
RTVSPost2010PropOp40
 70
     1
102
RTVSPost2010Prop41ColorIndex
 90
       18
102
RTVSPost2010Prop41ColorRGB
 90
        0
102
RTVSPost2010PropOp41
 70
     1
102
RTVSPost2010Prop42
 90
       50
102
RTVSPost2010PropOp42
 70
     1
102
RTVSPost2010Prop43
 90
        3
102
RTVSPost2010PropOp43
 70
     1
102
RTVSPost2010Prop44ColorIndex
 90
        5
102
RTVSPost2010Prop44ColorRGB
 90
      255
102
RTVSPost2010PropOp44
 70
     1
102
RTVSPost2010Prop45
280
     0
102
RTVSPost2010PropOp45
 70
     1
102
RTVSPost2010Prop46
 90
       50
102
RTVSPost2010PropOp46
 70
     1
102
RTVSPost2010Prop47
 90
       50
102
RTVSPost2010PropOp47
 70
     1
102
RTVSPost2010Prop48
 90
       50
102
RTVSPost2010PropOp48
 70
     1
102
RTVSPost2010Prop49
280
     0
102
RTVSPost2010PropOp49
 70
     1
102
RTVSPost2010Prop50
 90
       50
102
RTVSPost2010PropOp50
 70
     1
102
RTVSPost2010Prop51ColorIndex
 90
      256
102
RTVSPost2010Prop51ColorRGB
 90
-16777216
102
RTVSPost2010PropOp51
 70
     0
102
RTVSPost2010Prop52
140
1.0
102
RTVSPost2010PropOp52
 70
     0
102
RTVSPost2010Prop53
 90
        2
102
RTVSPost2010PropOp53
 70
     1
102
RTVSPost2010Prop54
  1
strokes_ogs.tif
102
RTVSPost2010PropOp54
 70
     1
102
RTVSPost2010Prop55
280
     0
102
RTVSPost2010PropOp55
 70
     1
102
RTVSPost2010Prop56
140
1.0
102
RTVSPost2010PropOp56
 70
     1
102
RTVSPost2010Prop57
140
1.0
102
RTVSPost2010PropOp57
 70
     1
  0
XRECORD
  5
323
102
{ACAD_REACTORS
330
322
102
}
330
322
100
AcDbXrecord
280
     1
102
RTVSPropertyOp0
 70
     1
102
RTVSPropertyOp1
 70
     1
102
RTVSPropertyOp2
 70
     1
102
RTVSPropertyOp3
 70
     1
102
RTVSPropertyOp4
 70
     1
102
RTVSPropertyOp5
 70
     1
102
RTVSPropertyOp6
 70
     1
102
RTVSPropertyOp7
 70
     1
102
RTVSPropertyOp8
 70
     1
102
RTVSPropertyOp9
 70
     1
102
RTVSPropertyOp10
 70
     1
102
RTVSPropertyOp11
 70
     1
102
RTVSPropertyOp12
 70
     1
102
RTVSPropertyOp13
 70
     1
102
RTVSPropertyOp14
 70
     1
102
RTVSPropertyOp15
 70
     1
102
RTVSPropertyOp16
 70
     1
102
RTVSPropertyOp17
 70
     1
102
RTVSPropertyOp18
 70
     1
102
RTVSPropertyOp19
 70
     1
102
RTVSPropertyOp20
 70
     1
102
RTVSPropertyOp21
 70
     1
102
RTVSPropertyOp22
 70
     1
102
RTVSPropertyOp23
 70
     1
102
RTVSPropertyOp24
 70
     1
102
RTVSPropertyOp25
 70
     1
102
RTVSPropertyOp26
 70
     1
102
RTVSPropertyOp27
 70
     1
102
RTVSPropertyOp28
 70
     1
102
RTVSPropertyOp29
 70
     1
102
RTVSPropertyOp30
 70
     1
102
RTVSPropertyOp31
 70
     1
102
RTVSPropertyOp32
 70
     1
102
RTVSPropertyOp33
 70
     1
102
RTVSPropertyOp34
 70
     1
102
RTVSPropertyOp35
 70
     1
102
RTVSPropertyOp36
 70
     1
102
RTVSPropertyOp37
 70
     1
102
RTVSPropertyOp38
 70
     1
102
RTVSPropertyOp39
 70
     1
102
RTVSPropertyOp40
 70
     1
102
RTVSPropertyOp41
 70
     1
102
RTVSPropertyOp42
 70
     1
102
RTVSPropertyOp43
 70
     1
102
RTVSPropertyOp44
 70
     1
102
RTVSPropertyOp45
 70
     1
102
RTVSPropertyOp46
 70
     1
102
RTVSPropertyOp47
 70
     1
102
RTVSPropertyOp48
 70
     1
102
RTVSPropertyOp49
 70
     1
102
RTVSPropertyOp50
 70
     1
102
RTVSPropertyOp51
 70
     0
102
RTVSPropertyOp52
 70
     0
102
RTVSPropertyOp53
 70
     1
102
RTVSPropertyOp54
 70
     1
102
RTVSPropertyOp55
 70
     1
102
RTVSPropertyOp56
 70
     1
102
RTVSPropertyOp57
 70
     1
102
RTVSPost2010Prop28
280
     0
102
RTVSPost2010PropOp28
 70
     1
102
RTVSPost2010Prop29
280
     1
102
RTVSPost2010PropOp29
 70
     1
102
RTVSPost2010Prop30
280
     1
102
RTVSPost2010PropOp30
 70
     1
102
RTVSPost2010Prop31
280
     0
102
RTVSPost2010PropOp31
 70
     1
102
RTVSPost2010Prop32
280
     0
102
RTVSPost2010PropOp32
 70
     1
102
RTVSPost2010Prop33
280
     0
102
RTVSPost2010PropOp33
 70
     1
102
RTVSPost2010Prop34
280
     0
102
RTVSPost2010PropOp34
 70
     1
102
RTVSPost2010Prop35
280
     0
102
RTVSPost2010PropOp35
 70
     1
102
RTVSPost2010Prop36
280
     0
102
RTVSPost2010PropOp36
 70
     1
102
RTVSPost2010Prop37
 90
       50
102
RTVSPost2010PropOp37
 70
     1
102
RTVSPost2010Prop38
140
0.0
102
RTVSPost2010PropOp38
 70
     1
102
RTVSPost2010Prop39
140
1.0
102
RTVSPost2010PropOp39
 70
     1
102
RTVSPost2010Prop40
 90
        0
102
RTVSPost2010PropOp40
 70
     1
102
RTVSPost2010Prop41ColorIndex
 90
       18
102
RTVSPost2010Prop41ColorRGB
 90
        0
102
RTVSPost2010PropOp41
 70
     1
102
RTVSPost2010Prop42
 90
       50
102
RTVSPost2010PropOp42
 70
     1
102
RTVSPost2010Prop43
 90
        3
102
RTVSPost2010PropOp43
 70
     1
102
RTVSPost2010Prop44ColorIndex
 90
        5
102
RTVSPost2010Prop44ColorRGB
 90
      255
102
RTVSPost2010PropOp44
 70
     1
102
RTVSPost2010Prop45
280
     0
102
RTVSPost2010PropOp45
 70
     1
102
RTVSPost2010Prop46
 90
       50
102
RTVSPost2010PropOp46
 70
     1
102
RTVSPost2010Prop47
 90
       50
102
RTVSPost2010PropOp47
 70
     1
102
RTVSPost2010Prop48
 90
       50
102
RTVSPost2010PropOp48
 70
     1
102
RTVSPost2010Prop49
280
     0
102
RTVSPost2010PropOp49
 70
     1
102
RTVSPost2010Prop50
 90
       50
102
RTVSPost2010PropOp50
 70
     1
102
RTVSPost2010Prop51ColorIndex
 90
      256
102
RTVSPost2010Prop51ColorRGB
 90
-16777216
102
RTVSPost2010PropOp51
 70
     0
102
RTVSPost2010Prop52
140
1.0
102
RTVSPost2010PropOp52
 70
     0
102
RTVSPost2010Prop53
 90
        2
102
RTVSPost2010PropOp53
 70
     1
102
RTVSPost2010Prop54
  1
strokes_ogs.tif
102
RTVSPost2010PropOp54
 70
     1
102
RTVSPost2010Prop55
280
     0
102
RTVSPost2010PropOp55
 70
     1
102
RTVSPost2010Prop56
140
1.0
102
RTVSPost2010PropOp56
 70
     1
102
RTVSPost2010Prop57
140
1.0
102
RTVSPost2010PropOp57
 70
     1
  0
XRECORD
  5
325
102
{ACAD_REACTORS
330
324
102
}
330
324
100
AcDbXrecord
280
     1
102
RTVSPropertyOp0
 70
     1
102
RTVSPropertyOp1
 70
     1
102
RTVSPropertyOp2
 70
     1
102
RTVSPropertyOp3
 70
     1
102
RTVSPropertyOp4
 70
     1
102
RTVSPropertyOp5
 70
     1
102
RTVSPropertyOp6
 70
     1
102
RTVSPropertyOp7
 70
     1
102
RTVSPropertyOp8
 70
     1
102
RTVSPropertyOp9
 70
     1
102
RTVSPropertyOp10
 70
     1
102
RTVSPropertyOp11
 70
     1
102
RTVSPropertyOp12
 70
     1
102
RTVSPropertyOp13
 70
     1
102
RTVSPropertyOp14
 70
     1
102
RTVSPropertyOp15
 70
     1
102
RTVSPropertyOp16
 70
     1
102
RTVSPropertyOp17
 70
     1
102
RTVSPropertyOp18
 70
     1
102
RTVSPropertyOp19
 70
     1
102
RTVSPropertyOp20
 70
     1
102
RTVSPropertyOp21
 70
     1
102
RTVSPropertyOp22
 70
     1
102
RTVSPropertyOp23
 70
     1
102
RTVSPropertyOp24
 70
     1
102
RTVSPropertyOp25
 70
     1
102
RTVSPropertyOp26
 70
     1
102
RTVSPropertyOp27
 70
     1
102
RTVSPropertyOp28
 70
     1
102
RTVSPropertyOp29
 70
     1
102
RTVSPropertyOp30
 70
     1
102
RTVSPropertyOp31
 70
     1
102
RTVSPropertyOp32
 70
     1
102
RTVSPropertyOp33
 70
     1
102
RTVSPropertyOp34
 70
     1
102
RTVSPropertyOp35
 70
     1
102
RTVSPropertyOp36
 70
     1
102
RTVSPropertyOp37
 70
     1
102
RTVSPropertyOp38
 70
     1
102
RTVSPropertyOp39
 70
     1
102
RTVSPropertyOp40
 70
     1
102
RTVSPropertyOp41
 70
     1
102
RTVSPropertyOp42
 70
     1
102
RTVSPropertyOp43
 70
     1
102
RTVSPropertyOp44
 70
     1
102
RTVSPropertyOp45
 70
     1
102
RTVSPropertyOp46
 70
     1
102
RTVSPropertyOp47
 70
     1
102
RTVSPropertyOp48
 70
     1
102
RTVSPropertyOp49
 70
     1
102
RTVSPropertyOp50
 70
     1
102
RTVSPropertyOp51
 70
     0
102
RTVSPropertyOp52
 70
     0
102
RTVSPropertyOp53
 70
     1
102
RTVSPropertyOp54
 70
     1
102
RTVSPropertyOp55
 70
     1
102
RTVSPropertyOp56
 70
     1
102
RTVSPropertyOp57
 70
     1
102
RTVSPost2010Prop28
280
     0
102
RTVSPost2010PropOp28
 70
     1
102
RTVSPost2010Prop29
280
     1
102
RTVSPost2010PropOp29
 70
     1
102
RTVSPost2010Prop30
280
     1
102
RTVSPost2010PropOp30
 70
     1
102
RTVSPost2010Prop31
280
     0
102
RTVSPost2010PropOp31
 70
     1
102
RTVSPost2010Prop32
280
     0
102
RTVSPost2010PropOp32
 70
     1
102
RTVSPost2010Prop33
280
     0
102
RTVSPost2010PropOp33
 70
     1
102
RTVSPost2010Prop34
280
     0
102
RTVSPost2010PropOp34
 70
     1
102
RTVSPost2010Prop35
280
     0
102
RTVSPost2010PropOp35
 70
     1
102
RTVSPost2010Prop36
280
     0
102
RTVSPost2010PropOp36
 70
     1
102
RTVSPost2010Prop37
 90
       50
102
RTVSPost2010PropOp37
 70
     1
102
RTVSPost2010Prop38
140
0.0
102
RTVSPost2010PropOp38
 70
     1
102
RTVSPost2010Prop39
140
1.0
102
RTVSPost2010PropOp39
 70
     1
102
RTVSPost2010Prop40
 90
        0
102
RTVSPost2010PropOp40
 70
     1
102
RTVSPost2010Prop41ColorIndex
 90
       18
102
RTVSPost2010Prop41ColorRGB
 90
        0
102
RTVSPost2010PropOp41
 70
     1
102
RTVSPost2010Prop42
 90
       50
102
RTVSPost2010PropOp42
 70
     1
102
RTVSPost2010Prop43
 90
        3
102
RTVSPost2010PropOp43
 70
     1
102
RTVSPost2010Prop44ColorIndex
 90
        5
102
RTVSPost2010Prop44ColorRGB
 90
      255
102
RTVSPost2010PropOp44
 70
     1
102
RTVSPost2010Prop45
280
     0
102
RTVSPost2010PropOp45
 70
     1
102
RTVSPost2010Prop46
 90
       50
102
RTVSPost2010PropOp46
 70
     1
102
RTVSPost2010Prop47
 90
       50
102
RTVSPost2010PropOp47
 70
     1
102
RTVSPost2010Prop48
 90
       50
102
RTVSPost2010PropOp48
 70
     1
102
RTVSPost2010Prop49
280
     0
102
RTVSPost2010PropOp49
 70
     1
102
RTVSPost2010Prop50
 90
       50
102
RTVSPost2010PropOp50
 70
     1
102
RTVSPost2010Prop51ColorIndex
 90
      256
102
RTVSPost2010Prop51ColorRGB
 90
-16777216
102
RTVSPost2010PropOp51
 70
     0
102
RTVSPost2010Prop52
140
1.0
102
RTVSPost2010PropOp52
 70
     0
102
RTVSPost2010Prop53
 90
        2
102
RTVSPost2010PropOp53
 70
     1
102
RTVSPost2010Prop54
  1
strokes_ogs.tif
102
RTVSPost2010PropOp54
 70
     1
102
RTVSPost2010Prop55
280
     0
102
RTVSPost2010PropOp55
 70
     1
102
RTVSPost2010Prop56
140
1.0
102
RTVSPost2010PropOp56
 70
     1
102
RTVSPost2010Prop57
140
1.0
102
RTVSPost2010PropOp57
 70
     1
  0
XRECORD
  5
327
102
{ACAD_REACTORS
330
326
102
}
330
326
100
AcDbXrecord
280
     1
102
RTVSPropertyOp0
 70
     1
102
RTVSPropertyOp1
 70
     1
102
RTVSPropertyOp2
 70
     1
102
RTVSPropertyOp3
 70
     1
102
RTVSPropertyOp4
 70
     1
102
RTVSPropertyOp5
 70
     1
102
RTVSPropertyOp6
 70
     1
102
RTVSPropertyOp7
 70
     1
102
RTVSPropertyOp8
 70
     1
102
RTVSPropertyOp9
 70
     1
102
RTVSPropertyOp10
 70
     1
102
RTVSPropertyOp11
 70
     1
102
RTVSPropertyOp12
 70
     1
102
RTVSPropertyOp13
 70
     1
102
RTVSPropertyOp14
 70
     1
102
RTVSPropertyOp15
 70
     1
102
RTVSPropertyOp16
 70
     1
102
RTVSPropertyOp17
 70
     1
102
RTVSPropertyOp18
 70
     1
102
RTVSPropertyOp19
 70
     1
102
RTVSPropertyOp20
 70
     1
102
RTVSPropertyOp21
 70
     1
102
RTVSPropertyOp22
 70
     1
102
RTVSPropertyOp23
 70
     1
102
RTVSPropertyOp24
 70
     1
102
RTVSPropertyOp25
 70
     1
102
RTVSPropertyOp26
 70
     1
102
RTVSPropertyOp27
 70
     1
102
RTVSPropertyOp28
 70
     1
102
RTVSPropertyOp29
 70
     1
102
RTVSPropertyOp30
 70
     1
102
RTVSPropertyOp31
 70
     1
102
RTVSPropertyOp32
 70
     1
102
RTVSPropertyOp33
 70
     1
102
RTVSPropertyOp34
 70
     1
102
RTVSPropertyOp35
 70
     1
102
RTVSPropertyOp36
 70
     1
102
RTVSPropertyOp37
 70
     1
102
RTVSPropertyOp38
 70
     1
102
RTVSPropertyOp39
 70
     1
102
RTVSPropertyOp40
 70
     1
102
RTVSPropertyOp41
 70
     1
102
RTVSPropertyOp42
 70
     1
102
RTVSPropertyOp43
 70
     1
102
RTVSPropertyOp44
 70
     1
102
RTVSPropertyOp45
 70
     1
102
RTVSPropertyOp46
 70
     1
102
RTVSPropertyOp47
 70
     1
102
RTVSPropertyOp48
 70
     1
102
RTVSPropertyOp49
 70
     1
102
RTVSPropertyOp50
 70
     1
102
RTVSPropertyOp51
 70
     0
102
RTVSPropertyOp52
 70
     0
102
RTVSPropertyOp53
 70
     1
102
RTVSPropertyOp54
 70
     1
102
RTVSPropertyOp55
 70
     1
102
RTVSPropertyOp56
 70
     1
102
RTVSPropertyOp57
 70
     1
102
RTVSPost2010Prop28
280
     0
102
RTVSPost2010PropOp28
 70
     1
102
RTVSPost2010Prop29
280
     1
102
RTVSPost2010PropOp29
 70
     1
102
RTVSPost2010Prop30
280
     1
102
RTVSPost2010PropOp30
 70
     1
102
RTVSPost2010Prop31
280
     0
102
RTVSPost2010PropOp31
 70
     1
102
RTVSPost2010Prop32
280
     0
102
RTVSPost2010PropOp32
 70
     1
102
RTVSPost2010Prop33
280
     0
102
RTVSPost2010PropOp33
 70
     1
102
RTVSPost2010Prop34
280
     0
102
RTVSPost2010PropOp34
 70
     1
102
RTVSPost2010Prop35
280
     0
102
RTVSPost2010PropOp35
 70
     1
102
RTVSPost2010Prop36
280
     0
102
RTVSPost2010PropOp36
 70
     1
102
RTVSPost2010Prop37
 90
       50
102
RTVSPost2010PropOp37
 70
     1
102
RTVSPost2010Prop38
140
0.0
102
RTVSPost2010PropOp38
 70
     1
102
RTVSPost2010Prop39
140
1.0
102
RTVSPost2010PropOp39
 70
     1
102
RTVSPost2010Prop40
 90
        0
102
RTVSPost2010PropOp40
 70
     1
102
RTVSPost2010Prop41ColorIndex
 90
       18
102
RTVSPost2010Prop41ColorRGB
 90
        0
102
RTVSPost2010PropOp41
 70
     1
102
RTVSPost2010Prop42
 90
       50
102
RTVSPost2010PropOp42
 70
     1
102
RTVSPost2010Prop43
 90
        3
102
RTVSPost2010PropOp43
 70
     1
102
RTVSPost2010Prop44ColorIndex
 90
        5
102
RTVSPost2010Prop44ColorRGB
 90
      255
102
RTVSPost2010PropOp44
 70
     1
102
RTVSPost2010Prop45
280
     0
102
RTVSPost2010PropOp45
 70
     1
102
RTVSPost2010Prop46
 90
       50
102
RTVSPost2010PropOp46
 70
     1
102
RTVSPost2010Prop47
 90
       50
102
RTVSPost2010PropOp47
 70
     1
102
RTVSPost2010Prop48
 90
       50
102
RTVSPost2010PropOp48
 70
     1
102
RTVSPost2010Prop49
280
     0
102
RTVSPost2010PropOp49
 70
     1
102
RTVSPost2010Prop50
 90
       50
102
RTVSPost2010PropOp50
 70
     1
102
RTVSPost2010Prop51ColorIndex
 90
      256
102
RTVSPost2010Prop51ColorRGB
 90
-16777216
102
RTVSPost2010PropOp51
 70
     0
102
RTVSPost2010Prop52
140
1.0
102
RTVSPost2010PropOp52
 70
     0
102
RTVSPost2010Prop53
 90
        2
102
RTVSPost2010PropOp53
 70
     1
102
RTVSPost2010Prop54
  1
strokes_ogs.tif
102
RTVSPost2010PropOp54
 70
     1
102
RTVSPost2010Prop55
280
     0
102
RTVSPost2010PropOp55
 70
     1
102
RTVSPost2010Prop56
140
1.0
102
RTVSPost2010PropOp56
 70
     1
102
RTVSPost2010Prop57
140
1.0
102
RTVSPost2010PropOp57
 70
     1
  0
XRECORD
  5
329
102
{ACAD_REACTORS
330
328
102
}
330
328
100
AcDbXrecord
280
     1
102
RTVSPropertyOp0
 70
     1
102
RTVSPropertyOp1
 70
     1
102
RTVSPropertyOp2
 70
     1
102
RTVSPropertyOp3
 70
     1
102
RTVSPropertyOp4
 70
     1
102
RTVSPropertyOp5
 70
     1
102
RTVSPropertyOp6
 70
     1
102
RTVSPropertyOp7
 70
     1
102
RTVSPropertyOp8
 70
     1
102
RTVSPropertyOp9
 70
     1
102
RTVSPropertyOp10
 70
     1
102
RTVSPropertyOp11
 70
     1
102
RTVSPropertyOp12
 70
     1
102
RTVSPropertyOp13
 70
     1
102
RTVSPropertyOp14
 70
     1
102
RTVSPropertyOp15
 70
     1
102
RTVSPropertyOp16
 70
     1
102
RTVSPropertyOp17
 70
     1
102
RTVSPropertyOp18
 70
     1
102
RTVSPropertyOp19
 70
     1
102
RTVSPropertyOp20
 70
     1
102
RTVSPropertyOp21
 70
     1
102
RTVSPropertyOp22
 70
     1
102
RTVSPropertyOp23
 70
     1
102
RTVSPropertyOp24
 70
     1
102
RTVSPropertyOp25
 70
     1
102
RTVSPropertyOp26
 70
     1
102
RTVSPropertyOp27
 70
     1
102
RTVSPropertyOp28
 70
     1
102
RTVSPropertyOp29
 70
     1
102
RTVSPropertyOp30
 70
     1
102
RTVSPropertyOp31
 70
     1
102
RTVSPropertyOp32
 70
     1
102
RTVSPropertyOp33
 70
     1
102
RTVSPropertyOp34
 70
     1
102
RTVSPropertyOp35
 70
     1
102
RTVSPropertyOp36
 70
     1
102
RTVSPropertyOp37
 70
     1
102
RTVSPropertyOp38
 70
     1
102
RTVSPropertyOp39
 70
     1
102
RTVSPropertyOp40
 70
     1
102
RTVSPropertyOp41
 70
     1
102
RTVSPropertyOp42
 70
     1
102
RTVSPropertyOp43
 70
     1
102
RTVSPropertyOp44
 70
     1
102
RTVSPropertyOp45
 70
     1
102
RTVSPropertyOp46
 70
     1
102
RTVSPropertyOp47
 70
     1
102
RTVSPropertyOp48
 70
     1
102
RTVSPropertyOp49
 70
     1
102
RTVSPropertyOp50
 70
     1
102
RTVSPropertyOp51
 70
     0
102
RTVSPropertyOp52
 70
     0
102
RTVSPropertyOp53
 70
     1
102
RTVSPropertyOp54
 70
     1
102
RTVSPropertyOp55
 70
     1
102
RTVSPropertyOp56
 70
     1
102
RTVSPropertyOp57
 70
     1
102
RTVSPost2010Prop28
280
     0
102
RTVSPost2010PropOp28
 70
     1
102
RTVSPost2010Prop29
280
     1
102
RTVSPost2010PropOp29
 70
     1
102
RTVSPost2010Prop30
280
     1
102
RTVSPost2010PropOp30
 70
     1
102
RTVSPost2010Prop31
280
     0
102
RTVSPost2010PropOp31
 70
     1
102
RTVSPost2010Prop32
280
     0
102
RTVSPost2010PropOp32
 70
     1
102
RTVSPost2010Prop33
280
     0
102
RTVSPost2010PropOp33
 70
     1
102
RTVSPost2010Prop34
280
     0
102
RTVSPost2010PropOp34
 70
     1
102
RTVSPost2010Prop35
280
     0
102
RTVSPost2010PropOp35
 70
     1
102
RTVSPost2010Prop36
280
     0
102
RTVSPost2010PropOp36
 70
     1
102
RTVSPost2010Prop37
 90
       50
102
RTVSPost2010PropOp37
 70
     1
102
RTVSPost2010Prop38
140
0.0
102
RTVSPost2010PropOp38
 70
     1
102
RTVSPost2010Prop39
140
1.0
102
RTVSPost2010PropOp39
 70
     1
102
RTVSPost2010Prop40
 90
        0
102
RTVSPost2010PropOp40
 70
     1
102
RTVSPost2010Prop41ColorIndex
 90
       18
102
RTVSPost2010Prop41ColorRGB
 90
        0
102
RTVSPost2010PropOp41
 70
     1
102
RTVSPost2010Prop42
 90
       50
102
RTVSPost2010PropOp42
 70
     1
102
RTVSPost2010Prop43
 90
        3
102
RTVSPost2010PropOp43
 70
     1
102
RTVSPost2010Prop44ColorIndex
 90
        5
102
RTVSPost2010Prop44ColorRGB
 90
      255
102
RTVSPost2010PropOp44
 70
     1
102
RTVSPost2010Prop45
280
     0
102
RTVSPost2010PropOp45
 70
     1
102
RTVSPost2010Prop46
 90
       50
102
RTVSPost2010PropOp46
 70
     1
102
RTVSPost2010Prop47
 90
       50
102
RTVSPost2010PropOp47
 70
     1
102
RTVSPost2010Prop48
 90
       50
102
RTVSPost2010PropOp48
 70
     1
102
RTVSPost2010Prop49
280
     0
102
RTVSPost2010PropOp49
 70
     1
102
RTVSPost2010Prop50
 90
       50
102
RTVSPost2010PropOp50
 70
     1
102
RTVSPost2010Prop51ColorIndex
 90
      256
102
RTVSPost2010Prop51ColorRGB
 90
-16777216
102
RTVSPost2010PropOp51
 70
     0
102
RTVSPost2010Prop52
140
1.0
102
RTVSPost2010PropOp52
 70
     0
102
RTVSPost2010Prop53
 90
        2
102
RTVSPost2010PropOp53
 70
     1
102
RTVSPost2010Prop54
  1
strokes_ogs.tif
102
RTVSPost2010PropOp54
 70
     1
102
RTVSPost2010Prop55
280
     0
102
RTVSPost2010PropOp55
 70
     1
102
RTVSPost2010Prop56
140
1.0
102
RTVSPost2010PropOp56
 70
     1
102
RTVSPost2010Prop57
140
1.0
102
RTVSPost2010PropOp57
 70
     1
  0
XRECORD
  5
32F
102
{ACAD_REACTORS
330
32E
102
}
330
32E
100
AcDbXrecord
280
     1
102
RTVSPropertyOp0
 70
     1
102
RTVSPropertyOp1
 70
     1
102
RTVSPropertyOp2
 70
     1
102
RTVSPropertyOp3
 70
     1
102
RTVSPropertyOp4
 70
     1
102
RTVSPropertyOp5
 70
     1
102
RTVSPropertyOp6
 70
     1
102
RTVSPropertyOp7
 70
     1
102
RTVSPropertyOp8
 70
     1
102
RTVSPropertyOp9
 70
     1
102
RTVSPropertyOp10
 70
     1
102
RTVSPropertyOp11
 70
     1
102
RTVSPropertyOp12
 70
     1
102
RTVSPropertyOp13
 70
     1
102
RTVSPropertyOp14
 70
     1
102
RTVSPropertyOp15
 70
     1
102
RTVSPropertyOp16
 70
     1
102
RTVSPropertyOp17
 70
     1
102
RTVSPropertyOp18
 70
     1
102
RTVSPropertyOp19
 70
     1
102
RTVSPropertyOp20
 70
     1
102
RTVSPropertyOp21
 70
     1
102
RTVSPropertyOp22
 70
     1
102
RTVSPropertyOp23
 70
     1
102
RTVSPropertyOp24
 70
     1
102
RTVSPropertyOp25
 70
     1
102
RTVSPropertyOp26
 70
     1
102
RTVSPropertyOp27
 70
     1
102
RTVSPropertyOp28
 70
     1
102
RTVSPropertyOp29
 70
     1
102
RTVSPropertyOp30
 70
     1
102
RTVSPropertyOp31
 70
     1
102
RTVSPropertyOp32
 70
     1
102
RTVSPropertyOp33
 70
     1
102
RTVSPropertyOp34
 70
     1
102
RTVSPropertyOp35
 70
     1
102
RTVSPropertyOp36
 70
     1
102
RTVSPropertyOp37
 70
     1
102
RTVSPropertyOp38
 70
     1
102
RTVSPropertyOp39
 70
     1
102
RTVSPropertyOp40
 70
     1
102
RTVSPropertyOp41
 70
     1
102
RTVSPropertyOp42
 70
     1
102
RTVSPropertyOp43
 70
     1
102
RTVSPropertyOp44
 70
     1
102
RTVSPropertyOp45
 70
     1
102
RTVSPropertyOp46
 70
     1
102
RTVSPropertyOp47
 70
     1
102
RTVSPropertyOp48
 70
     1
102
RTVSPropertyOp49
 70
     1
102
RTVSPropertyOp50
 70
     1
102
RTVSPropertyOp51
 70
     0
102
RTVSPropertyOp52
 70
     0
102
RTVSPropertyOp53
 70
     1
102
RTVSPropertyOp54
 70
     1
102
RTVSPropertyOp55
 70
     1
102
RTVSPropertyOp56
 70
     1
102
RTVSPropertyOp57
 70
     1
102
RTVSPost2010Prop28
280
     0
102
RTVSPost2010PropOp28
 70
     1
102
RTVSPost2010Prop29
280
     1
102
RTVSPost2010PropOp29
 70
     1
102
RTVSPost2010Prop30
280
     1
102
RTVSPost2010PropOp30
 70
     1
102
RTVSPost2010Prop31
280
     0
102
RTVSPost2010PropOp31
 70
     1
102
RTVSPost2010Prop32
280
     0
102
RTVSPost2010PropOp32
 70
     1
102
RTVSPost2010Prop33
280
     0
102
RTVSPost2010PropOp33
 70
     1
102
RTVSPost2010Prop34
280
     0
102
RTVSPost2010PropOp34
 70
     1
102
RTVSPost2010Prop35
280
     0
102
RTVSPost2010PropOp35
 70
     1
102
RTVSPost2010Prop36
280
     0
102
RTVSPost2010PropOp36
 70
     1
102
RTVSPost2010Prop37
 90
       50
102
RTVSPost2010PropOp37
 70
     1
102
RTVSPost2010Prop38
140
0.0
102
RTVSPost2010PropOp38
 70
     1
102
RTVSPost2010Prop39
140
1.0
102
RTVSPost2010PropOp39
 70
     1
102
RTVSPost2010Prop40
 90
        0
102
RTVSPost2010PropOp40
 70
     1
102
RTVSPost2010Prop41ColorIndex
 90
       18
102
RTVSPost2010Prop41ColorRGB
 90
        0
102
RTVSPost2010PropOp41
 70
     1
102
RTVSPost2010Prop42
 90
       50
102
RTVSPost2010PropOp42
 70
     1
102
RTVSPost2010Prop43
 90
        3
102
RTVSPost2010PropOp43
 70
     1
102
RTVSPost2010Prop44ColorIndex
 90
        5
102
RTVSPost2010Prop44ColorRGB
 90
      255
102
RTVSPost2010PropOp44
 70
     1
102
RTVSPost2010Prop45
280
     0
102
RTVSPost2010PropOp45
 70
     1
102
RTVSPost2010Prop46
 90
       50
102
RTVSPost2010PropOp46
 70
     1
102
RTVSPost2010Prop47
 90
       50
102
RTVSPost2010PropOp47
 70
     1
102
RTVSPost2010Prop48
 90
       50
102
RTVSPost2010PropOp48
 70
     1
102
RTVSPost2010Prop49
280
     0
102
RTVSPost2010PropOp49
 70
     1
102
RTVSPost2010Prop50
 90
       50
102
RTVSPost2010PropOp50
 70
     1
102
RTVSPost2010Prop51ColorIndex
 90
      256
102
RTVSPost2010Prop51ColorRGB
 90
-16777216
102
RTVSPost2010PropOp51
 70
     0
102
RTVSPost2010Prop52
140
1.0
102
RTVSPost2010PropOp52
 70
     0
102
RTVSPost2010Prop53
 90
        2
102
RTVSPost2010PropOp53
 70
     1
102
RTVSPost2010Prop54
  1
strokes_ogs.tif
102
RTVSPost2010PropOp54
 70
     1
102
RTVSPost2010Prop55
280
     0
102
RTVSPost2010PropOp55
 70
     1
102
RTVSPost2010Prop56
140
1.0
102
RTVSPost2010PropOp56
 70
     1
102
RTVSPost2010Prop57
140
1.0
102
RTVSPost2010PropOp57
 70
     1
  0
XRECORD
  5
343
102
{ACAD_REACTORS
330
342
102
}
330
342
100
AcDbXrecord
280
     1
102
RTVSPropertyOp0
 70
     0
102
RTVSPropertyOp1
 70
     0
102
RTVSPropertyOp2
 70
     0
102
RTVSPropertyOp3
 70
     0
102
RTVSPropertyOp4
 70
     0
102
RTVSPropertyOp5
 70
     0
102
RTVSPropertyOp6
 70
     0
102
RTVSPropertyOp7
 70
     0
102
RTVSPropertyOp8
 70
     0
102
RTVSPropertyOp9
 70
     0
102
RTVSPropertyOp10
 70
     0
102
RTVSPropertyOp11
 70
     0
102
RTVSPropertyOp12
 70
     0
102
RTVSPropertyOp13
 70
     0
102
RTVSPropertyOp14
 70
     2
102
RTVSPropertyOp15
 70
     0
102
RTVSPropertyOp16
 70
     0
102
RTVSPropertyOp17
 70
     0
102
RTVSPropertyOp18
 70
     0
102
RTVSPropertyOp19
 70
     0
102
RTVSPropertyOp20
 70
     0
102
RTVSPropertyOp21
 70
     0
102
RTVSPropertyOp22
 70
     0
102
RTVSPropertyOp23
 70
     0
102
RTVSPropertyOp24
 70
     0
102
RTVSPropertyOp25
 70
     0
102
RTVSPropertyOp26
 70
     0
102
RTVSPropertyOp27
 70
     0
102
RTVSPropertyOp28
 70
     0
102
RTVSPropertyOp29
 70
     0
102
RTVSPropertyOp30
 70
     0
102
RTVSPropertyOp31
 70
     0
102
RTVSPropertyOp32
 70
     0
102
RTVSPropertyOp33
 70
     0
102
RTVSPropertyOp34
 70
     0
102
RTVSPropertyOp35
 70
     0
102
RTVSPropertyOp36
 70
     0
102
RTVSPropertyOp37
 70
     0
102
RTVSPropertyOp38
 70
     0
102
RTVSPropertyOp39
 70
     0
102
RTVSPropertyOp40
 70
     0
102
RTVSPropertyOp41
 70
     0
102
RTVSPropertyOp42
 70
     0
102
RTVSPropertyOp43
 70
     0
102
RTVSPropertyOp44
 70
     0
102
RTVSPropertyOp45
 70
     0
102
RTVSPropertyOp46
 70
     0
102
RTVSPropertyOp47
 70
     0
102
RTVSPropertyOp48
 70
     0
102
RTVSPropertyOp49
 70
     0
102
RTVSPropertyOp50
 70
     0
102
RTVSPropertyOp51
 70
     0
102
RTVSPropertyOp52
 70
     0
102
RTVSPropertyOp53
 70
     0
102
RTVSPropertyOp54
 70
     0
102
RTVSPropertyOp55
 70
     0
102
RTVSPropertyOp56
 70
     0
102
RTVSPropertyOp57
 70
     0
102
RTVSPost2010Prop28
280
     0
102
RTVSPost2010PropOp28
 70
     0
102
RTVSPost2010Prop29
280
     1
102
RTVSPost2010PropOp29
 70
     0
102
RTVSPost2010Prop30
280
     1
102
RTVSPost2010PropOp30
 70
     0
102
RTVSPost2010Prop31
280
     0
102
RTVSPost2010PropOp31
 70
     0
102
RTVSPost2010Prop32
280
     0
102
RTVSPost2010PropOp32
 70
     0
102
RTVSPost2010Prop33
280
     0
102
RTVSPost2010PropOp33
 70
     0
102
RTVSPost2010Prop34
280
     0
102
RTVSPost2010PropOp34
 70
     0
102
RTVSPost2010Prop35
280
     0
102
RTVSPost2010PropOp35
 70
     0
102
RTVSPost2010Prop36
280
     0
102
RTVSPost2010PropOp36
 70
     0
102
RTVSPost2010Prop37
 90
       50
102
RTVSPost2010PropOp37
 70
     0
102
RTVSPost2010Prop38
140
0.0
102
RTVSPost2010PropOp38
 70
     0
102
RTVSPost2010Prop39
140
1.0
102
RTVSPost2010PropOp39
 70
     0
102
RTVSPost2010Prop40
 90
        0
102
RTVSPost2010PropOp40
 70
     0
102
RTVSPost2010Prop41ColorIndex
 90
       18
102
RTVSPost2010Prop41ColorRGB
 90
        0
102
RTVSPost2010PropOp41
 70
     0
102
RTVSPost2010Prop42
 90
       50
102
RTVSPost2010PropOp42
 70
     0
102
RTVSPost2010Prop43
 90
        3
102
RTVSPost2010PropOp43
 70
     0
102
RTVSPost2010Prop44ColorIndex
 90
        5
102
RTVSPost2010Prop44ColorRGB
 90
      255
102
RTVSPost2010PropOp44
 70
     0
102
RTVSPost2010Prop45
280
     0
102
RTVSPost2010PropOp45
 70
     0
102
RTVSPost2010Prop46
 90
       50
102
RTVSPost2010PropOp46
 70
     0
102
RTVSPost2010Prop47
 90
       50
102
RTVSPost2010PropOp47
 70
     0
102
RTVSPost2010Prop48
 90
       50
102
RTVSPost2010PropOp48
 70
     0
102
RTVSPost2010Prop49
280
     0
102
RTVSPost2010PropOp49
 70
     0
102
RTVSPost2010Prop50
 90
       50
102
RTVSPost2010PropOp50
 70
     0
102
RTVSPost2010Prop51ColorIndex
 90
      256
102
RTVSPost2010Prop51ColorRGB
 90
-16777216
102
RTVSPost2010PropOp51
 70
     0
102
RTVSPost2010Prop52
140
1.0
102
RTVSPost2010PropOp52
 70
     0
102
RTVSPost2010Prop53
 90
        2
102
RTVSPost2010PropOp53
 70
     0
102
RTVSPost2010Prop54
  1
strokes_ogs.tif
102
RTVSPost2010PropOp54
 70
     0
102
RTVSPost2010Prop55
280
     0
102
RTVSPost2010PropOp55
 70
     0
102
RTVSPost2010Prop56
140
1.0
102
RTVSPost2010PropOp56
 70
     0
102
RTVSPost2010Prop57
140
1.0
102
RTVSPost2010PropOp57
 70
     0
  0
XRECORD
  5
33D
102
{ACAD_REACTORS
330
33C
102
}
330
33C
100
AcDbXrecord
280
     1
102
RTVSPropertyOp0
 70
     1
102
RTVSPropertyOp1
 70
     1
102
RTVSPropertyOp2
 70
     1
102
RTVSPropertyOp3
 70
     1
102
RTVSPropertyOp4
 70
     1
102
RTVSPropertyOp5
 70
     1
102
RTVSPropertyOp6
 70
     1
102
RTVSPropertyOp7
 70
     1
102
RTVSPropertyOp8
 70
     1
102
RTVSPropertyOp9
 70
     1
102
RTVSPropertyOp10
 70
     1
102
RTVSPropertyOp11
 70
     1
102
RTVSPropertyOp12
 70
     1
102
RTVSPropertyOp13
 70
     1
102
RTVSPropertyOp14
 70
     1
102
RTVSPropertyOp15
 70
     1
102
RTVSPropertyOp16
 70
     1
102
RTVSPropertyOp17
 70
     1
102
RTVSPropertyOp18
 70
     1
102
RTVSPropertyOp19
 70
     1
102
RTVSPropertyOp20
 70
     1
102
RTVSPropertyOp21
 70
     1
102
RTVSPropertyOp22
 70
     1
102
RTVSPropertyOp23
 70
     1
102
RTVSPropertyOp24
 70
     1
102
RTVSPropertyOp25
 70
     1
102
RTVSPropertyOp26
 70
     1
102
RTVSPropertyOp27
 70
     1
102
RTVSPropertyOp28
 70
     1
102
RTVSPropertyOp29
 70
     1
102
RTVSPropertyOp30
 70
     1
102
RTVSPropertyOp31
 70
     1
102
RTVSPropertyOp32
 70
     1
102
RTVSPropertyOp33
 70
     1
102
RTVSPropertyOp34
 70
     1
102
RTVSPropertyOp35
 70
     1
102
RTVSPropertyOp36
 70
     1
102
RTVSPropertyOp37
 70
     1
102
RTVSPropertyOp38
 70
     1
102
RTVSPropertyOp39
 70
     1
102
RTVSPropertyOp40
 70
     1
102
RTVSPropertyOp41
 70
     1
102
RTVSPropertyOp42
 70
     1
102
RTVSPropertyOp43
 70
     1
102
RTVSPropertyOp44
 70
     1
102
RTVSPropertyOp45
 70
     1
102
RTVSPropertyOp46
 70
     1
102
RTVSPropertyOp47
 70
     1
102
RTVSPropertyOp48
 70
     1
102
RTVSPropertyOp49
 70
     1
102
RTVSPropertyOp50
 70
     1
102
RTVSPropertyOp51
 70
     0
102
RTVSPropertyOp52
 70
     0
102
RTVSPropertyOp53
 70
     1
102
RTVSPropertyOp54
 70
     1
102
RTVSPropertyOp55
 70
     1
102
RTVSPropertyOp56
 70
     1
102
RTVSPropertyOp57
 70
     1
102
RTVSPost2010Prop28
280
     0
102
RTVSPost2010PropOp28
 70
     1
102
RTVSPost2010Prop29
280
     1
102
RTVSPost2010PropOp29
 70
     1
102
RTVSPost2010Prop30
280
     1
102
RTVSPost2010PropOp30
 70
     1
102
RTVSPost2010Prop31
280
     0
102
RTVSPost2010PropOp31
 70
     1
102
RTVSPost2010Prop32
280
     0
102
RTVSPost2010PropOp32
 70
     1
102
RTVSPost2010Prop33
280
     0
102
RTVSPost2010PropOp33
 70
     1
102
RTVSPost2010Prop34
280
     0
102
RTVSPost2010PropOp34
 70
     1
102
RTVSPost2010Prop35
280
     0
102
RTVSPost2010PropOp35
 70
     1
102
RTVSPost2010Prop36
280
     0
102
RTVSPost2010PropOp36
 70
     1
102
RTVSPost2010Prop37
 90
       50
102
RTVSPost2010PropOp37
 70
     1
102
RTVSPost2010Prop38
140
0.0
102
RTVSPost2010PropOp38
 70
     1
102
RTVSPost2010Prop39
140
1.0
102
RTVSPost2010PropOp39
 70
     1
102
RTVSPost2010Prop40
 90
        0
102
RTVSPost2010PropOp40
 70
     1
102
RTVSPost2010Prop41ColorIndex
 90
       18
102
RTVSPost2010Prop41ColorRGB
 90
        0
102
RTVSPost2010PropOp41
 70
     1
102
RTVSPost2010Prop42
 90
       50
102
RTVSPost2010PropOp42
 70
     1
102
RTVSPost2010Prop43
 90
        3
102
RTVSPost2010PropOp43
 70
     1
102
RTVSPost2010Prop44ColorIndex
 90
        5
102
RTVSPost2010Prop44ColorRGB
 90
      255
102
RTVSPost2010PropOp44
 70
     1
102
RTVSPost2010Prop45
280
     0
102
RTVSPost2010PropOp45
 70
     1
102
RTVSPost2010Prop46
 90
       50
102
RTVSPost2010PropOp46
 70
     1
102
RTVSPost2010Prop47
 90
       50
102
RTVSPost2010PropOp47
 70
     1
102
RTVSPost2010Prop48
 90
       50
102
RTVSPost2010PropOp48
 70
     1
102
RTVSPost2010Prop49
280
     0
102
RTVSPost2010PropOp49
 70
     1
102
RTVSPost2010Prop50
 90
       50
102
RTVSPost2010PropOp50
 70
     1
102
RTVSPost2010Prop51ColorIndex
 90
      256
102
RTVSPost2010Prop51ColorRGB
 90
-16777216
102
RTVSPost2010PropOp51
 70
     0
102
RTVSPost2010Prop52
140
1.0
102
RTVSPost2010PropOp52
 70
     0
102
RTVSPost2010Prop53
 90
        2
102
RTVSPost2010PropOp53
 70
     1
102
RTVSPost2010Prop54
  1
strokes_ogs.tif
102
RTVSPost2010PropOp54
 70
     1
102
RTVSPost2010Prop55
280
     0
102
RTVSPost2010PropOp55
 70
     1
102
RTVSPost2010Prop56
140
1.0
102
RTVSPost2010PropOp56
 70
     1
102
RTVSPost2010Prop57
140
1.0
102
RTVSPost2010PropOp57
 70
     1
  0
XRECORD
  5
345
102
{ACAD_REACTORS
330
344
102
}
330
344
100
AcDbXrecord
280
     1
102
RTVSPropertyOp0
 70
     0
102
RTVSPropertyOp1
 70
     0
102
RTVSPropertyOp2
 70
     0
102
RTVSPropertyOp3
 70
     0
102
RTVSPropertyOp4
 70
     0
102
RTVSPropertyOp5
 70
     0
102
RTVSPropertyOp6
 70
     0
102
RTVSPropertyOp7
 70
     0
102
RTVSPropertyOp8
 70
     0
102
RTVSPropertyOp9
 70
     0
102
RTVSPropertyOp10
 70
     0
102
RTVSPropertyOp11
 70
     0
102
RTVSPropertyOp12
 70
     0
102
RTVSPropertyOp13
 70
     0
102
RTVSPropertyOp14
 70
     2
102
RTVSPropertyOp15
 70
     0
102
RTVSPropertyOp16
 70
     0
102
RTVSPropertyOp17
 70
     0
102
RTVSPropertyOp18
 70
     0
102
RTVSPropertyOp19
 70
     0
102
RTVSPropertyOp20
 70
     0
102
RTVSPropertyOp21
 70
     0
102
RTVSPropertyOp22
 70
     0
102
RTVSPropertyOp23
 70
     0
102
RTVSPropertyOp24
 70
     0
102
RTVSPropertyOp25
 70
     0
102
RTVSPropertyOp26
 70
     0
102
RTVSPropertyOp27
 70
     0
102
RTVSPropertyOp28
 70
     0
102
RTVSPropertyOp29
 70
     0
102
RTVSPropertyOp30
 70
     0
102
RTVSPropertyOp31
 70
     0
102
RTVSPropertyOp32
 70
     0
102
RTVSPropertyOp33
 70
     0
102
RTVSPropertyOp34
 70
     0
102
RTVSPropertyOp35
 70
     0
102
RTVSPropertyOp36
 70
     0
102
RTVSPropertyOp37
 70
     0
102
RTVSPropertyOp38
 70
     0
102
RTVSPropertyOp39
 70
     0
102
RTVSPropertyOp40
 70
     0
102
RTVSPropertyOp41
 70
     0
102
RTVSPropertyOp42
 70
     0
102
RTVSPropertyOp43
 70
     0
102
RTVSPropertyOp44
 70
     0
102
RTVSPropertyOp45
 70
     0
102
RTVSPropertyOp46
 70
     0
102
RTVSPropertyOp47
 70
     0
102
RTVSPropertyOp48
 70
     0
102
RTVSPropertyOp49
 70
     0
102
RTVSPropertyOp50
 70
     0
102
RTVSPropertyOp51
 70
     0
102
RTVSPropertyOp52
 70
     0
102
RTVSPropertyOp53
 70
     0
102
RTVSPropertyOp54
 70
     0
102
RTVSPropertyOp55
 70
     0
102
RTVSPropertyOp56
 70
     0
102
RTVSPropertyOp57
 70
     0
102
RTVSPost2010Prop28
280
     0
102
RTVSPost2010PropOp28
 70
     0
102
RTVSPost2010Prop29
280
     1
102
RTVSPost2010PropOp29
 70
     0
102
RTVSPost2010Prop30
280
     1
102
RTVSPost2010PropOp30
 70
     0
102
RTVSPost2010Prop31
280
     0
102
RTVSPost2010PropOp31
 70
     0
102
RTVSPost2010Prop32
280
     0
102
RTVSPost2010PropOp32
 70
     0
102
RTVSPost2010Prop33
280
     0
102
RTVSPost2010PropOp33
 70
     0
102
RTVSPost2010Prop34
280
     0
102
RTVSPost2010PropOp34
 70
     0
102
RTVSPost2010Prop35
280
     0
102
RTVSPost2010PropOp35
 70
     0
102
RTVSPost2010Prop36
280
     0
102
RTVSPost2010PropOp36
 70
     0
102
RTVSPost2010Prop37
 90
       50
102
RTVSPost2010PropOp37
 70
     0
102
RTVSPost2010Prop38
140
0.0
102
RTVSPost2010PropOp38
 70
     0
102
RTVSPost2010Prop39
140
1.0
102
RTVSPost2010PropOp39
 70
     0
102
RTVSPost2010Prop40
 90
        0
102
RTVSPost2010PropOp40
 70
     0
102
RTVSPost2010Prop41ColorIndex
 90
       18
102
RTVSPost2010Prop41ColorRGB
 90
        0
102
RTVSPost2010PropOp41
 70
     0
102
RTVSPost2010Prop42
 90
       50
102
RTVSPost2010PropOp42
 70
     0
102
RTVSPost2010Prop43
 90
        3
102
RTVSPost2010PropOp43
 70
     0
102
RTVSPost2010Prop44ColorIndex
 90
        5
102
RTVSPost2010Prop44ColorRGB
 90
      255
102
RTVSPost2010PropOp44
 70
     0
102
RTVSPost2010Prop45
280
     0
102
RTVSPost2010PropOp45
 70
     0
102
RTVSPost2010Prop46
 90
       50
102
RTVSPost2010PropOp46
 70
     0
102
RTVSPost2010Prop47
 90
       50
102
RTVSPost2010PropOp47
 70
     0
102
RTVSPost2010Prop48
 90
       50
102
RTVSPost2010PropOp48
 70
     0
102
RTVSPost2010Prop49
280
     0
102
RTVSPost2010PropOp49
 70
     0
102
RTVSPost2010Prop50
 90
       50
102
RTVSPost2010PropOp50
 70
     0
102
RTVSPost2010Prop51ColorIndex
 90
      256
102
RTVSPost2010Prop51ColorRGB
 90
-16777216
102
RTVSPost2010PropOp51
 70
     0
102
RTVSPost2010Prop52
140
1.0
102
RTVSPost2010PropOp52
 70
     0
102
RTVSPost2010Prop53
 90
        2
102
RTVSPost2010PropOp53
 70
     0
102
RTVSPost2010Prop54
  1
strokes_ogs.tif
102
RTVSPost2010PropOp54
 70
     0
102
RTVSPost2010Prop55
280
     0
102
RTVSPost2010PropOp55
 70
     0
102
RTVSPost2010Prop56
140
1.0
102
RTVSPost2010PropOp56
 70
     0
102
RTVSPost2010Prop57
140
1.0
102
RTVSPost2010PropOp57
 70
     0
  0
XRECORD
  5
333
102
{ACAD_REACTORS
330
332
102
}
330
332
100
AcDbXrecord
280
     1
102
RTVSPropertyOp0
 70
     1
102
RTVSPropertyOp1
 70
     1
102
RTVSPropertyOp2
 70
     1
102
RTVSPropertyOp3
 70
     1
102
RTVSPropertyOp4
 70
     1
102
RTVSPropertyOp5
 70
     1
102
RTVSPropertyOp6
 70
     1
102
RTVSPropertyOp7
 70
     1
102
RTVSPropertyOp8
 70
     1
102
RTVSPropertyOp9
 70
     1
102
RTVSPropertyOp10
 70
     1
102
RTVSPropertyOp11
 70
     1
102
RTVSPropertyOp12
 70
     1
102
RTVSPropertyOp13
 70
     1
102
RTVSPropertyOp14
 70
     1
102
RTVSPropertyOp15
 70
     1
102
RTVSPropertyOp16
 70
     1
102
RTVSPropertyOp17
 70
     1
102
RTVSPropertyOp18
 70
     1
102
RTVSPropertyOp19
 70
     1
102
RTVSPropertyOp20
 70
     1
102
RTVSPropertyOp21
 70
     1
102
RTVSPropertyOp22
 70
     1
102
RTVSPropertyOp23
 70
     1
102
RTVSPropertyOp24
 70
     1
102
RTVSPropertyOp25
 70
     1
102
RTVSPropertyOp26
 70
     1
102
RTVSPropertyOp27
 70
     1
102
RTVSPropertyOp28
 70
     1
102
RTVSPropertyOp29
 70
     1
102
RTVSPropertyOp30
 70
     1
102
RTVSPropertyOp31
 70
     1
102
RTVSPropertyOp32
 70
     1
102
RTVSPropertyOp33
 70
     1
102
RTVSPropertyOp34
 70
     1
102
RTVSPropertyOp35
 70
     1
102
RTVSPropertyOp36
 70
     1
102
RTVSPropertyOp37
 70
     1
102
RTVSPropertyOp38
 70
     1
102
RTVSPropertyOp39
 70
     1
102
RTVSPropertyOp40
 70
     1
102
RTVSPropertyOp41
 70
     1
102
RTVSPropertyOp42
 70
     1
102
RTVSPropertyOp43
 70
     1
102
RTVSPropertyOp44
 70
     1
102
RTVSPropertyOp45
 70
     1
102
RTVSPropertyOp46
 70
     1
102
RTVSPropertyOp47
 70
     1
102
RTVSPropertyOp48
 70
     1
102
RTVSPropertyOp49
 70
     1
102
RTVSPropertyOp50
 70
     1
102
RTVSPropertyOp51
 70
     0
102
RTVSPropertyOp52
 70
     0
102
RTVSPropertyOp53
 70
     1
102
RTVSPropertyOp54
 70
     1
102
RTVSPropertyOp55
 70
     1
102
RTVSPropertyOp56
 70
     1
102
RTVSPropertyOp57
 70
     1
102
RTVSPost2010Prop28
280
     0
102
RTVSPost2010PropOp28
 70
     1
102
RTVSPost2010Prop29
280
     1
102
RTVSPost2010PropOp29
 70
     1
102
RTVSPost2010Prop30
280
     1
102
RTVSPost2010PropOp30
 70
     1
102
RTVSPost2010Prop31
280
     0
102
RTVSPost2010PropOp31
 70
     1
102
RTVSPost2010Prop32
280
     0
102
RTVSPost2010PropOp32
 70
     1
102
RTVSPost2010Prop33
280
     0
102
RTVSPost2010PropOp33
 70
     1
102
RTVSPost2010Prop34
280
     0
102
RTVSPost2010PropOp34
 70
     1
102
RTVSPost2010Prop35
280
     0
102
RTVSPost2010PropOp35
 70
     1
102
RTVSPost2010Prop36
280
     0
102
RTVSPost2010PropOp36
 70
     1
102
RTVSPost2010Prop37
 90
       50
102
RTVSPost2010PropOp37
 70
     1
102
RTVSPost2010Prop38
140
0.0
102
RTVSPost2010PropOp38
 70
     1
102
RTVSPost2010Prop39
140
1.0
102
RTVSPost2010PropOp39
 70
     1
102
RTVSPost2010Prop40
 90
        0
102
RTVSPost2010PropOp40
 70
     1
102
RTVSPost2010Prop41ColorIndex
 90
       18
102
RTVSPost2010Prop41ColorRGB
 90
        0
102
RTVSPost2010PropOp41
 70
     1
102
RTVSPost2010Prop42
 90
       50
102
RTVSPost2010PropOp42
 70
     1
102
RTVSPost2010Prop43
 90
        3
102
RTVSPost2010PropOp43
 70
     1
102
RTVSPost2010Prop44ColorIndex
 90
        5
102
RTVSPost2010Prop44ColorRGB
 90
      255
102
RTVSPost2010PropOp44
 70
     1
102
RTVSPost2010Prop45
280
     0
102
RTVSPost2010PropOp45
 70
     1
102
RTVSPost2010Prop46
 90
       50
102
RTVSPost2010PropOp46
 70
     1
102
RTVSPost2010Prop47
 90
       50
102
RTVSPost2010PropOp47
 70
     1
102
RTVSPost2010Prop48
 90
       50
102
RTVSPost2010PropOp48
 70
     1
102
RTVSPost2010Prop49
280
     0
102
RTVSPost2010PropOp49
 70
     1
102
RTVSPost2010Prop50
 90
       50
102
RTVSPost2010PropOp50
 70
     1
102
RTVSPost2010Prop51ColorIndex
 90
      256
102
RTVSPost2010Prop51ColorRGB
 90
-16777216
102
RTVSPost2010PropOp51
 70
     0
102
RTVSPost2010Prop52
140
1.0
102
RTVSPost2010PropOp52
 70
     0
102
RTVSPost2010Prop53
 90
        2
102
RTVSPost2010PropOp53
 70
     1
102
RTVSPost2010Prop54
  1
strokes_ogs.tif
102
RTVSPost2010PropOp54
 70
     1
102
RTVSPost2010Prop55
280
     0
102
RTVSPost2010PropOp55
 70
     1
102
RTVSPost2010Prop56
140
1.0
102
RTVSPost2010PropOp56
 70
     1
102
RTVSPost2010Prop57
140
1.0
102
RTVSPost2010PropOp57
 70
     1
  0
XRECORD
  5
351
102
{ACAD_REACTORS
330
350
102
}
330
350
100
AcDbXrecord
280
     1
102
RTVSPropertyOp0
 70
     1
102
RTVSPropertyOp1
 70
     1
102
RTVSPropertyOp2
 70
     1
102
RTVSPropertyOp3
 70
     1
102
RTVSPropertyOp4
 70
     1
102
RTVSPropertyOp5
 70
     1
102
RTVSPropertyOp6
 70
     1
102
RTVSPropertyOp7
 70
     1
102
RTVSPropertyOp8
 70
     1
102
RTVSPropertyOp9
 70
     1
102
RTVSPropertyOp10
 70
     1
102
RTVSPropertyOp11
 70
     1
102
RTVSPropertyOp12
 70
     1
102
RTVSPropertyOp13
 70
     1
102
RTVSPropertyOp14
 70
     1
102
RTVSPropertyOp15
 70
     1
102
RTVSPropertyOp16
 70
     1
102
RTVSPropertyOp17
 70
     1
102
RTVSPropertyOp18
 70
     1
102
RTVSPropertyOp19
 70
     1
102
RTVSPropertyOp20
 70
     1
102
RTVSPropertyOp21
 70
     1
102
RTVSPropertyOp22
 70
     1
102
RTVSPropertyOp23
 70
     1
102
RTVSPropertyOp24
 70
     1
102
RTVSPropertyOp25
 70
     1
102
RTVSPropertyOp26
 70
     1
102
RTVSPropertyOp27
 70
     1
102
RTVSPropertyOp28
 70
     1
102
RTVSPropertyOp29
 70
     1
102
RTVSPropertyOp30
 70
     1
102
RTVSPropertyOp31
 70
     1
102
RTVSPropertyOp32
 70
     1
102
RTVSPropertyOp33
 70
     1
102
RTVSPropertyOp34
 70
     1
102
RTVSPropertyOp35
 70
     1
102
RTVSPropertyOp36
 70
     1
102
RTVSPropertyOp37
 70
     1
102
RTVSPropertyOp38
 70
     1
102
RTVSPropertyOp39
 70
     1
102
RTVSPropertyOp40
 70
     1
102
RTVSPropertyOp41
 70
     1
102
RTVSPropertyOp42
 70
     1
102
RTVSPropertyOp43
 70
     1
102
RTVSPropertyOp44
 70
     1
102
RTVSPropertyOp45
 70
     1
102
RTVSPropertyOp46
 70
     1
102
RTVSPropertyOp47
 70
     1
102
RTVSPropertyOp48
 70
     1
102
RTVSPropertyOp49
 70
     1
102
RTVSPropertyOp50
 70
     1
102
RTVSPropertyOp51
 70
     0
102
RTVSPropertyOp52
 70
     0
102
RTVSPropertyOp53
 70
     1
102
RTVSPropertyOp54
 70
     1
102
RTVSPropertyOp55
 70
     1
102
RTVSPropertyOp56
 70
     1
102
RTVSPropertyOp57
 70
     1
102
RTVSPost2010Prop28
280
     0
102
RTVSPost2010PropOp28
 70
     1
102
RTVSPost2010Prop29
280
     1
102
RTVSPost2010PropOp29
 70
     1
102
RTVSPost2010Prop30
280
     1
102
RTVSPost2010PropOp30
 70
     1
102
RTVSPost2010Prop31
280
     0
102
RTVSPost2010PropOp31
 70
     1
102
RTVSPost2010Prop32
280
     0
102
RTVSPost2010PropOp32
 70
     1
102
RTVSPost2010Prop33
280
     0
102
RTVSPost2010PropOp33
 70
     1
102
RTVSPost2010Prop34
280
     0
102
RTVSPost2010PropOp34
 70
     1
102
RTVSPost2010Prop35
280
     0
102
RTVSPost2010PropOp35
 70
     1
102
RTVSPost2010Prop36
280
     0
102
RTVSPost2010PropOp36
 70
     1
102
RTVSPost2010Prop37
 90
       50
102
RTVSPost2010PropOp37
 70
     1
102
RTVSPost2010Prop38
140
0.0
102
RTVSPost2010PropOp38
 70
     1
102
RTVSPost2010Prop39
140
1.0
102
RTVSPost2010PropOp39
 70
     1
102
RTVSPost2010Prop40
 90
        0
102
RTVSPost2010PropOp40
 70
     1
102
RTVSPost2010Prop41ColorIndex
 90
       18
102
RTVSPost2010Prop41ColorRGB
 90
        0
102
RTVSPost2010PropOp41
 70
     1
102
RTVSPost2010Prop42
 90
       50
102
RTVSPost2010PropOp42
 70
     1
102
RTVSPost2010Prop43
 90
        3
102
RTVSPost2010PropOp43
 70
     1
102
RTVSPost2010Prop44ColorIndex
 90
        5
102
RTVSPost2010Prop44ColorRGB
 90
      255
102
RTVSPost2010PropOp44
 70
     1
102
RTVSPost2010Prop45
280
     0
102
RTVSPost2010PropOp45
 70
     1
102
RTVSPost2010Prop46
 90
       50
102
RTVSPost2010PropOp46
 70
     1
102
RTVSPost2010Prop47
 90
       50
102
RTVSPost2010PropOp47
 70
     1
102
RTVSPost2010Prop48
 90
       50
102
RTVSPost2010PropOp48
 70
     1
102
RTVSPost2010Prop49
280
     0
102
RTVSPost2010PropOp49
 70
     1
102
RTVSPost2010Prop50
 90
       50
102
RTVSPost2010PropOp50
 70
     1
102
RTVSPost2010Prop51ColorIndex
 90
      256
102
RTVSPost2010Prop51ColorRGB
 90
-16777216
102
RTVSPost2010PropOp51
 70
     0
102
RTVSPost2010Prop52
140
1.0
102
RTVSPost2010PropOp52
 70
     0
102
RTVSPost2010Prop53
 90
        2
102
RTVSPost2010PropOp53
 70
     1
102
RTVSPost2010Prop54
  1
strokes_ogs.tif
102
RTVSPost2010PropOp54
 70
     1
102
RTVSPost2010Prop55
280
     0
102
RTVSPost2010PropOp55
 70
     1
102
RTVSPost2010Prop56
140
1.0
102
RTVSPost2010PropOp56
 70
     1
102
RTVSPost2010Prop57
140
1.0
102
RTVSPost2010PropOp57
 70
     1
  0
XRECORD
  5
34F
102
{ACAD_REACTORS
330
34E
102
}
330
34E
100
AcDbXrecord
280
     1
102
RTVSPropertyOp0
 70
     1
102
RTVSPropertyOp1
 70
     1
102
RTVSPropertyOp2
 70
     1
102
RTVSPropertyOp3
 70
     1
102
RTVSPropertyOp4
 70
     1
102
RTVSPropertyOp5
 70
     1
102
RTVSPropertyOp6
 70
     1
102
RTVSPropertyOp7
 70
     1
102
RTVSPropertyOp8
 70
     1
102
RTVSPropertyOp9
 70
     1
102
RTVSPropertyOp10
 70
     1
102
RTVSPropertyOp11
 70
     1
102
RTVSPropertyOp12
 70
     1
102
RTVSPropertyOp13
 70
     1
102
RTVSPropertyOp14
 70
     1
102
RTVSPropertyOp15
 70
     1
102
RTVSPropertyOp16
 70
     1
102
RTVSPropertyOp17
 70
     1
102
RTVSPropertyOp18
 70
     1
102
RTVSPropertyOp19
 70
     1
102
RTVSPropertyOp20
 70
     1
102
RTVSPropertyOp21
 70
     1
102
RTVSPropertyOp22
 70
     1
102
RTVSPropertyOp23
 70
     1
102
RTVSPropertyOp24
 70
     1
102
RTVSPropertyOp25
 70
     1
102
RTVSPropertyOp26
 70
     1
102
RTVSPropertyOp27
 70
     1
102
RTVSPropertyOp28
 70
     1
102
RTVSPropertyOp29
 70
     1
102
RTVSPropertyOp30
 70
     1
102
RTVSPropertyOp31
 70
     1
102
RTVSPropertyOp32
 70
     1
102
RTVSPropertyOp33
 70
     1
102
RTVSPropertyOp34
 70
     1
102
RTVSPropertyOp35
 70
     1
102
RTVSPropertyOp36
 70
     1
102
RTVSPropertyOp37
 70
     1
102
RTVSPropertyOp38
 70
     1
102
RTVSPropertyOp39
 70
     1
102
RTVSPropertyOp40
 70
     1
102
RTVSPropertyOp41
 70
     1
102
RTVSPropertyOp42
 70
     1
102
RTVSPropertyOp43
 70
     1
102
RTVSPropertyOp44
 70
     1
102
RTVSPropertyOp45
 70
     1
102
RTVSPropertyOp46
 70
     1
102
RTVSPropertyOp47
 70
     1
102
RTVSPropertyOp48
 70
     1
102
RTVSPropertyOp49
 70
     1
102
RTVSPropertyOp50
 70
     1
102
RTVSPropertyOp51
 70
     0
102
RTVSPropertyOp52
 70
     0
102
RTVSPropertyOp53
 70
     1
102
RTVSPropertyOp54
 70
     1
102
RTVSPropertyOp55
 70
     1
102
RTVSPropertyOp56
 70
     1
102
RTVSPropertyOp57
 70
     1
102
RTVSPost2010Prop28
280
     0
102
RTVSPost2010PropOp28
 70
     1
102
RTVSPost2010Prop29
280
     1
102
RTVSPost2010PropOp29
 70
     1
102
RTVSPost2010Prop30
280
     1
102
RTVSPost2010PropOp30
 70
     1
102
RTVSPost2010Prop31
280
     0
102
RTVSPost2010PropOp31
 70
     1
102
RTVSPost2010Prop32
280
     0
102
RTVSPost2010PropOp32
 70
     1
102
RTVSPost2010Prop33
280
     0
102
RTVSPost2010PropOp33
 70
     1
102
RTVSPost2010Prop34
280
     0
102
RTVSPost2010PropOp34
 70
     1
102
RTVSPost2010Prop35
280
     0
102
RTVSPost2010PropOp35
 70
     1
102
RTVSPost2010Prop36
280
     0
102
RTVSPost2010PropOp36
 70
     1
102
RTVSPost2010Prop37
 90
       50
102
RTVSPost2010PropOp37
 70
     1
102
RTVSPost2010Prop38
140
0.0
102
RTVSPost2010PropOp38
 70
     1
102
RTVSPost2010Prop39
140
1.0
102
RTVSPost2010PropOp39
 70
     1
102
RTVSPost2010Prop40
 90
        0
102
RTVSPost2010PropOp40
 70
     1
102
RTVSPost2010Prop41ColorIndex
 90
       18
102
RTVSPost2010Prop41ColorRGB
 90
        0
102
RTVSPost2010PropOp41
 70
     1
102
RTVSPost2010Prop42
 90
       50
102
RTVSPost2010PropOp42
 70
     1
102
RTVSPost2010Prop43
 90
        3
102
RTVSPost2010PropOp43
 70
     1
102
RTVSPost2010Prop44ColorIndex
 90
        5
102
RTVSPost2010Prop44ColorRGB
 90
      255
102
RTVSPost2010PropOp44
 70
     1
102
RTVSPost2010Prop45
280
     0
102
RTVSPost2010PropOp45
 70
     1
102
RTVSPost2010Prop46
 90
       50
102
RTVSPost2010PropOp46
 70
     1
102
RTVSPost2010Prop47
 90
       50
102
RTVSPost2010PropOp47
 70
     1
102
RTVSPost2010Prop48
 90
       50
102
RTVSPost2010PropOp48
 70
     1
102
RTVSPost2010Prop49
280
     0
102
RTVSPost2010PropOp49
 70
     1
102
RTVSPost2010Prop50
 90
       50
102
RTVSPost2010PropOp50
 70
     1
102
RTVSPost2010Prop51ColorIndex
 90
      256
102
RTVSPost2010Prop51ColorRGB
 90
-16777216
102
RTVSPost2010PropOp51
 70
     0
102
RTVSPost2010Prop52
140
1.0
102
RTVSPost2010PropOp52
 70
     0
102
RTVSPost2010Prop53
 90
        2
102
RTVSPost2010PropOp53
 70
     1
102
RTVSPost2010Prop54
  1
strokes_ogs.tif
102
RTVSPost2010PropOp54
 70
     1
102
RTVSPost2010Prop55
280
     0
102
RTVSPost2010PropOp55
 70
     1
102
RTVSPost2010Prop56
140
1.0
102
RTVSPost2010PropOp56
 70
     1
102
RTVSPost2010Prop57
140
1.0
102
RTVSPost2010PropOp57
 70
     1
  0
XRECORD
  5
349
102
{ACAD_REACTORS
330
348
102
}
330
348
100
AcDbXrecord
280
     1
102
RTVSPropertyOp0
 70
     1
102
RTVSPropertyOp1
 70
     1
102
RTVSPropertyOp2
 70
     1
102
RTVSPropertyOp3
 70
     1
102
RTVSPropertyOp4
 70
     1
102
RTVSPropertyOp5
 70
     1
102
RTVSPropertyOp6
 70
     1
102
RTVSPropertyOp7
 70
     1
102
RTVSPropertyOp8
 70
     1
102
RTVSPropertyOp9
 70
     1
102
RTVSPropertyOp10
 70
     1
102
RTVSPropertyOp11
 70
     1
102
RTVSPropertyOp12
 70
     1
102
RTVSPropertyOp13
 70
     1
102
RTVSPropertyOp14
 70
     1
102
RTVSPropertyOp15
 70
     1
102
RTVSPropertyOp16
 70
     1
102
RTVSPropertyOp17
 70
     1
102
RTVSPropertyOp18
 70
     1
102
RTVSPropertyOp19
 70
     1
102
RTVSPropertyOp20
 70
     1
102
RTVSPropertyOp21
 70
     1
102
RTVSPropertyOp22
 70
     1
102
RTVSPropertyOp23
 70
     1
102
RTVSPropertyOp24
 70
     1
102
RTVSPropertyOp25
 70
     1
102
RTVSPropertyOp26
 70
     1
102
RTVSPropertyOp27
 70
     1
102
RTVSPropertyOp28
 70
     1
102
RTVSPropertyOp29
 70
     1
102
RTVSPropertyOp30
 70
     1
102
RTVSPropertyOp31
 70
     1
102
RTVSPropertyOp32
 70
     1
102
RTVSPropertyOp33
 70
     1
102
RTVSPropertyOp34
 70
     1
102
RTVSPropertyOp35
 70
     1
102
RTVSPropertyOp36
 70
     1
102
RTVSPropertyOp37
 70
     1
102
RTVSPropertyOp38
 70
     1
102
RTVSPropertyOp39
 70
     1
102
RTVSPropertyOp40
 70
     1
102
RTVSPropertyOp41
 70
     1
102
RTVSPropertyOp42
 70
     1
102
RTVSPropertyOp43
 70
     1
102
RTVSPropertyOp44
 70
     1
102
RTVSPropertyOp45
 70
     1
102
RTVSPropertyOp46
 70
     1
102
RTVSPropertyOp47
 70
     1
102
RTVSPropertyOp48
 70
     1
102
RTVSPropertyOp49
 70
     1
102
RTVSPropertyOp50
 70
     1
102
RTVSPropertyOp51
 70
     0
102
RTVSPropertyOp52
 70
     0
102
RTVSPropertyOp53
 70
     1
102
RTVSPropertyOp54
 70
     1
102
RTVSPropertyOp55
 70
     1
102
RTVSPropertyOp56
 70
     1
102
RTVSPropertyOp57
 70
     1
102
RTVSPost2010Prop28
280
     0
102
RTVSPost2010PropOp28
 70
     1
102
RTVSPost2010Prop29
280
     1
102
RTVSPost2010PropOp29
 70
     1
102
RTVSPost2010Prop30
280
     1
102
RTVSPost2010PropOp30
 70
     1
102
RTVSPost2010Prop31
280
     0
102
RTVSPost2010PropOp31
 70
     1
102
RTVSPost2010Prop32
280
     0
102
RTVSPost2010PropOp32
 70
     1
102
RTVSPost2010Prop33
280
     0
102
RTVSPost2010PropOp33
 70
     1
102
RTVSPost2010Prop34
280
     0
102
RTVSPost2010PropOp34
 70
     1
102
RTVSPost2010Prop35
280
     0
102
RTVSPost2010PropOp35
 70
     1
102
RTVSPost2010Prop36
280
     0
102
RTVSPost2010PropOp36
 70
     1
102
RTVSPost2010Prop37
 90
       50
102
RTVSPost2010PropOp37
 70
     1
102
RTVSPost2010Prop38
140
0.0
102
RTVSPost2010PropOp38
 70
     1
102
RTVSPost2010Prop39
140
1.0
102
RTVSPost2010PropOp39
 70
     1
102
RTVSPost2010Prop40
 90
        0
102
RTVSPost2010PropOp40
 70
     1
102
RTVSPost2010Prop41ColorIndex
 90
       18
102
RTVSPost2010Prop41ColorRGB
 90
        0
102
RTVSPost2010PropOp41
 70
     1
102
RTVSPost2010Prop42
 90
       50
102
RTVSPost2010PropOp42
 70
     1
102
RTVSPost2010Prop43
 90
        3
102
RTVSPost2010PropOp43
 70
     1
102
RTVSPost2010Prop44ColorIndex
 90
        5
102
RTVSPost2010Prop44ColorRGB
 90
      255
102
RTVSPost2010PropOp44
 70
     1
102
RTVSPost2010Prop45
280
     0
102
RTVSPost2010PropOp45
 70
     1
102
RTVSPost2010Prop46
 90
       50
102
RTVSPost2010PropOp46
 70
     1
102
RTVSPost2010Prop47
 90
       50
102
RTVSPost2010PropOp47
 70
     1
102
RTVSPost2010Prop48
 90
       50
102
RTVSPost2010PropOp48
 70
     1
102
RTVSPost2010Prop49
280
     0
102
RTVSPost2010PropOp49
 70
     1
102
RTVSPost2010Prop50
 90
       50
102
RTVSPost2010PropOp50
 70
     1
102
RTVSPost2010Prop51ColorIndex
 90
      256
102
RTVSPost2010Prop51ColorRGB
 90
-16777216
102
RTVSPost2010PropOp51
 70
     0
102
RTVSPost2010Prop52
140
1.0
102
RTVSPost2010PropOp52
 70
     0
102
RTVSPost2010Prop53
 90
        2
102
RTVSPost2010PropOp53
 70
     1
102
RTVSPost2010Prop54
  1
strokes_ogs.tif
102
RTVSPost2010PropOp54
 70
     1
102
RTVSPost2010Prop55
280
     0
102
RTVSPost2010PropOp55
 70
     1
102
RTVSPost2010Prop56
140
1.0
102
RTVSPost2010PropOp56
 70
     1
102
RTVSPost2010Prop57
140
1.0
102
RTVSPost2010PropOp57
 70
     1
  0
XRECORD
  5
34B
102
{ACAD_REACTORS
330
34A
102
}
330
34A
100
AcDbXrecord
280
     1
102
RTVSPropertyOp0
 70
     1
102
RTVSPropertyOp1
 70
     1
102
RTVSPropertyOp2
 70
     1
102
RTVSPropertyOp3
 70
     1
102
RTVSPropertyOp4
 70
     1
102
RTVSPropertyOp5
 70
     1
102
RTVSPropertyOp6
 70
     1
102
RTVSPropertyOp7
 70
     1
102
RTVSPropertyOp8
 70
     1
102
RTVSPropertyOp9
 70
     1
102
RTVSPropertyOp10
 70
     1
102
RTVSPropertyOp11
 70
     1
102
RTVSPropertyOp12
 70
     1
102
RTVSPropertyOp13
 70
     1
102
RTVSPropertyOp14
 70
     1
102
RTVSPropertyOp15
 70
     1
102
RTVSPropertyOp16
 70
     1
102
RTVSPropertyOp17
 70
     1
102
RTVSPropertyOp18
 70
     1
102
RTVSPropertyOp19
 70
     1
102
RTVSPropertyOp20
 70
     1
102
RTVSPropertyOp21
 70
     1
102
RTVSPropertyOp22
 70
     1
102
RTVSPropertyOp23
 70
     1
102
RTVSPropertyOp24
 70
     1
102
RTVSPropertyOp25
 70
     1
102
RTVSPropertyOp26
 70
     1
102
RTVSPropertyOp27
 70
     1
102
RTVSPropertyOp28
 70
     1
102
RTVSPropertyOp29
 70
     1
102
RTVSPropertyOp30
 70
     1
102
RTVSPropertyOp31
 70
     1
102
RTVSPropertyOp32
 70
     1
102
RTVSPropertyOp33
 70
     1
102
RTVSPropertyOp34
 70
     1
102
RTVSPropertyOp35
 70
     1
102
RTVSPropertyOp36
 70
     1
102
RTVSPropertyOp37
 70
     1
102
RTVSPropertyOp38
 70
     1
102
RTVSPropertyOp39
 70
     1
102
RTVSPropertyOp40
 70
     1
102
RTVSPropertyOp41
 70
     1
102
RTVSPropertyOp42
 70
     1
102
RTVSPropertyOp43
 70
     1
102
RTVSPropertyOp44
 70
     1
102
RTVSPropertyOp45
 70
     1
102
RTVSPropertyOp46
 70
     1
102
RTVSPropertyOp47
 70
     1
102
RTVSPropertyOp48
 70
     1
102
RTVSPropertyOp49
 70
     1
102
RTVSPropertyOp50
 70
     1
102
RTVSPropertyOp51
 70
     0
102
RTVSPropertyOp52
 70
     0
102
RTVSPropertyOp53
 70
     1
102
RTVSPropertyOp54
 70
     1
102
RTVSPropertyOp55
 70
     1
102
RTVSPropertyOp56
 70
     1
102
RTVSPropertyOp57
 70
     1
102
RTVSPost2010Prop28
280
     0
102
RTVSPost2010PropOp28
 70
     1
102
RTVSPost2010Prop29
280
     1
102
RTVSPost2010PropOp29
 70
     1
102
RTVSPost2010Prop30
280
     1
102
RTVSPost2010PropOp30
 70
     1
102
RTVSPost2010Prop31
280
     0
102
RTVSPost2010PropOp31
 70
     1
102
RTVSPost2010Prop32
280
     0
102
RTVSPost2010PropOp32
 70
     1
102
RTVSPost2010Prop33
280
     0
102
RTVSPost2010PropOp33
 70
     1
102
RTVSPost2010Prop34
280
     0
102
RTVSPost2010PropOp34
 70
     1
102
RTVSPost2010Prop35
280
     0
102
RTVSPost2010PropOp35
 70
     1
102
RTVSPost2010Prop36
280
     0
102
RTVSPost2010PropOp36
 70
     1
102
RTVSPost2010Prop37
 90
       50
102
RTVSPost2010PropOp37
 70
     1
102
RTVSPost2010Prop38
140
0.0
102
RTVSPost2010PropOp38
 70
     1
102
RTVSPost2010Prop39
140
1.0
102
RTVSPost2010PropOp39
 70
     1
102
RTVSPost2010Prop40
 90
        0
102
RTVSPost2010PropOp40
 70
     1
102
RTVSPost2010Prop41ColorIndex
 90
       18
102
RTVSPost2010Prop41ColorRGB
 90
        0
102
RTVSPost2010PropOp41
 70
     1
102
RTVSPost2010Prop42
 90
       50
102
RTVSPost2010PropOp42
 70
     1
102
RTVSPost2010Prop43
 90
        3
102
RTVSPost2010PropOp43
 70
     1
102
RTVSPost2010Prop44ColorIndex
 90
        5
102
RTVSPost2010Prop44ColorRGB
 90
      255
102
RTVSPost2010PropOp44
 70
     1
102
RTVSPost2010Prop45
280
     0
102
RTVSPost2010PropOp45
 70
     1
102
RTVSPost2010Prop46
 90
       50
102
RTVSPost2010PropOp46
 70
     1
102
RTVSPost2010Prop47
 90
       50
102
RTVSPost2010PropOp47
 70
     1
102
RTVSPost2010Prop48
 90
       50
102
RTVSPost2010PropOp48
 70
     1
102
RTVSPost2010Prop49
280
     0
102
RTVSPost2010PropOp49
 70
     1
102
RTVSPost2010Prop50
 90
       50
102
RTVSPost2010PropOp50
 70
     1
102
RTVSPost2010Prop51ColorIndex
 90
      256
102
RTVSPost2010Prop51ColorRGB
 90
-16777216
102
RTVSPost2010PropOp51
 70
     0
102
RTVSPost2010Prop52
140
1.0
102
RTVSPost2010PropOp52
 70
     0
102
RTVSPost2010Prop53
 90
        2
102
RTVSPost2010PropOp53
 70
     1
102
RTVSPost2010Prop54
  1
strokes_ogs.tif
102
RTVSPost2010PropOp54
 70
     1
102
RTVSPost2010Prop55
280
     0
102
RTVSPost2010PropOp55
 70
     1
102
RTVSPost2010Prop56
140
1.0
102
RTVSPost2010PropOp56
 70
     1
102
RTVSPost2010Prop57
140
1.0
102
RTVSPost2010PropOp57
 70
     1
  0
XRECORD
  5
33B
102
{ACAD_REACTORS
330
33A
102
}
330
33A
100
AcDbXrecord
280
     1
102
RTVSPropertyOp0
 70
     1
102
RTVSPropertyOp1
 70
     1
102
RTVSPropertyOp2
 70
     1
102
RTVSPropertyOp3
 70
     1
102
RTVSPropertyOp4
 70
     1
102
RTVSPropertyOp5
 70
     1
102
RTVSPropertyOp6
 70
     1
102
RTVSPropertyOp7
 70
     1
102
RTVSPropertyOp8
 70
     1
102
RTVSPropertyOp9
 70
     1
102
RTVSPropertyOp10
 70
     1
102
RTVSPropertyOp11
 70
     1
102
RTVSPropertyOp12
 70
     1
102
RTVSPropertyOp13
 70
     1
102
RTVSPropertyOp14
 70
     1
102
RTVSPropertyOp15
 70
     1
102
RTVSPropertyOp16
 70
     1
102
RTVSPropertyOp17
 70
     1
102
RTVSPropertyOp18
 70
     1
102
RTVSPropertyOp19
 70
     1
102
RTVSPropertyOp20
 70
     1
102
RTVSPropertyOp21
 70
     1
102
RTVSPropertyOp22
 70
     1
102
RTVSPropertyOp23
 70
     1
102
RTVSPropertyOp24
 70
     1
102
RTVSPropertyOp25
 70
     1
102
RTVSPropertyOp26
 70
     1
102
RTVSPropertyOp27
 70
     1
102
RTVSPropertyOp28
 70
     1
102
RTVSPropertyOp29
 70
     1
102
RTVSPropertyOp30
 70
     1
102
RTVSPropertyOp31
 70
     1
102
RTVSPropertyOp32
 70
     1
102
RTVSPropertyOp33
 70
     1
102
RTVSPropertyOp34
 70
     1
102
RTVSPropertyOp35
 70
     1
102
RTVSPropertyOp36
 70
     1
102
RTVSPropertyOp37
 70
     1
102
RTVSPropertyOp38
 70
     1
102
RTVSPropertyOp39
 70
     1
102
RTVSPropertyOp40
 70
     1
102
RTVSPropertyOp41
 70
     1
102
RTVSPropertyOp42
 70
     1
102
RTVSPropertyOp43
 70
     1
102
RTVSPropertyOp44
 70
     1
102
RTVSPropertyOp45
 70
     1
102
RTVSPropertyOp46
 70
     1
102
RTVSPropertyOp47
 70
     1
102
RTVSPropertyOp48
 70
     1
102
RTVSPropertyOp49
 70
     1
102
RTVSPropertyOp50
 70
     1
102
RTVSPropertyOp51
 70
     0
102
RTVSPropertyOp52
 70
     0
102
RTVSPropertyOp53
 70
     1
102
RTVSPropertyOp54
 70
     1
102
RTVSPropertyOp55
 70
     1
102
RTVSPropertyOp56
 70
     1
102
RTVSPropertyOp57
 70
     1
102
RTVSPost2010Prop28
280
     0
102
RTVSPost2010PropOp28
 70
     1
102
RTVSPost2010Prop29
280
     1
102
RTVSPost2010PropOp29
 70
     1
102
RTVSPost2010Prop30
280
     1
102
RTVSPost2010PropOp30
 70
     1
102
RTVSPost2010Prop31
280
     0
102
RTVSPost2010PropOp31
 70
     1
102
RTVSPost2010Prop32
280
     0
102
RTVSPost2010PropOp32
 70
     1
102
RTVSPost2010Prop33
280
     0
102
RTVSPost2010PropOp33
 70
     1
102
RTVSPost2010Prop34
280
     0
102
RTVSPost2010PropOp34
 70
     1
102
RTVSPost2010Prop35
280
     0
102
RTVSPost2010PropOp35
 70
     1
102
RTVSPost2010Prop36
280
     0
102
RTVSPost2010PropOp36
 70
     1
102
RTVSPost2010Prop37
 90
       50
102
RTVSPost2010PropOp37
 70
     1
102
RTVSPost2010Prop38
140
0.0
102
RTVSPost2010PropOp38
 70
     1
102
RTVSPost2010Prop39
140
1.0
102
RTVSPost2010PropOp39
 70
     1
102
RTVSPost2010Prop40
 90
        0
102
RTVSPost2010PropOp40
 70
     1
102
RTVSPost2010Prop41ColorIndex
 90
       18
102
RTVSPost2010Prop41ColorRGB
 90
        0
102
RTVSPost2010PropOp41
 70
     1
102
RTVSPost2010Prop42
 90
       50
102
RTVSPost2010PropOp42
 70
     1
102
RTVSPost2010Prop43
 90
        3
102
RTVSPost2010PropOp43
 70
     1
102
RTVSPost2010Prop44ColorIndex
 90
        5
102
RTVSPost2010Prop44ColorRGB
 90
      255
102
RTVSPost2010PropOp44
 70
     1
102
RTVSPost2010Prop45
280
     0
102
RTVSPost2010PropOp45
 70
     1
102
RTVSPost2010Prop46
 90
       50
102
RTVSPost2010PropOp46
 70
     1
102
RTVSPost2010Prop47
 90
       50
102
RTVSPost2010PropOp47
 70
     1
102
RTVSPost2010Prop48
 90
       50
102
RTVSPost2010PropOp48
 70
     1
102
RTVSPost2010Prop49
280
     0
102
RTVSPost2010PropOp49
 70
     1
102
RTVSPost2010Prop50
 90
       50
102
RTVSPost2010PropOp50
 70
     1
102
RTVSPost2010Prop51ColorIndex
 90
      256
102
RTVSPost2010Prop51ColorRGB
 90
-16777216
102
RTVSPost2010PropOp51
 70
     0
102
RTVSPost2010Prop52
140
1.0
102
RTVSPost2010PropOp52
 70
     0
102
RTVSPost2010Prop53
 90
        2
102
RTVSPost2010PropOp53
 70
     1
102
RTVSPost2010Prop54
  1
strokes_ogs.tif
102
RTVSPost2010PropOp54
 70
     1
102
RTVSPost2010Prop55
280
     0
102
RTVSPost2010PropOp55
 70
     1
102
RTVSPost2010Prop56
140
1.0
102
RTVSPost2010PropOp56
 70
     1
102
RTVSPost2010Prop57
140
1.0
102
RTVSPost2010PropOp57
 70
     1
  0
XRECORD
  5
32D
102
{ACAD_REACTORS
330
32C
102
}
330
32C
100
AcDbXrecord
280
     1
102
RTVSPropertyOp0
 70
     1
102
RTVSPropertyOp1
 70
     1
102
RTVSPropertyOp2
 70
     1
102
RTVSPropertyOp3
 70
     1
102
RTVSPropertyOp4
 70
     1
102
RTVSPropertyOp5
 70
     1
102
RTVSPropertyOp6
 70
     1
102
RTVSPropertyOp7
 70
     1
102
RTVSPropertyOp8
 70
     1
102
RTVSPropertyOp9
 70
     1
102
RTVSPropertyOp10
 70
     1
102
RTVSPropertyOp11
 70
     1
102
RTVSPropertyOp12
 70
     1
102
RTVSPropertyOp13
 70
     1
102
RTVSPropertyOp14
 70
     1
102
RTVSPropertyOp15
 70
     1
102
RTVSPropertyOp16
 70
     1
102
RTVSPropertyOp17
 70
     1
102
RTVSPropertyOp18
 70
     1
102
RTVSPropertyOp19
 70
     1
102
RTVSPropertyOp20
 70
     1
102
RTVSPropertyOp21
 70
     1
102
RTVSPropertyOp22
 70
     1
102
RTVSPropertyOp23
 70
     1
102
RTVSPropertyOp24
 70
     1
102
RTVSPropertyOp25
 70
     1
102
RTVSPropertyOp26
 70
     1
102
RTVSPropertyOp27
 70
     1
102
RTVSPropertyOp28
 70
     1
102
RTVSPropertyOp29
 70
     1
102
RTVSPropertyOp30
 70
     1
102
RTVSPropertyOp31
 70
     1
102
RTVSPropertyOp32
 70
     1
102
RTVSPropertyOp33
 70
     1
102
RTVSPropertyOp34
 70
     1
102
RTVSPropertyOp35
 70
     1
102
RTVSPropertyOp36
 70
     1
102
RTVSPropertyOp37
 70
     1
102
RTVSPropertyOp38
 70
     1
102
RTVSPropertyOp39
 70
     1
102
RTVSPropertyOp40
 70
     1
102
RTVSPropertyOp41
 70
     1
102
RTVSPropertyOp42
 70
     1
102
RTVSPropertyOp43
 70
     1
102
RTVSPropertyOp44
 70
     1
102
RTVSPropertyOp45
 70
     1
102
RTVSPropertyOp46
 70
     1
102
RTVSPropertyOp47
 70
     1
102
RTVSPropertyOp48
 70
     1
102
RTVSPropertyOp49
 70
     1
102
RTVSPropertyOp50
 70
     1
102
RTVSPropertyOp51
 70
     0
102
RTVSPropertyOp52
 70
     0
102
RTVSPropertyOp53
 70
     1
102
RTVSPropertyOp54
 70
     1
102
RTVSPropertyOp55
 70
     1
102
RTVSPropertyOp56
 70
     1
102
RTVSPropertyOp57
 70
     1
102
RTVSPost2010Prop28
280
     0
102
RTVSPost2010PropOp28
 70
     1
102
RTVSPost2010Prop29
280
     1
102
RTVSPost2010PropOp29
 70
     1
102
RTVSPost2010Prop30
280
     1
102
RTVSPost2010PropOp30
 70
     1
102
RTVSPost2010Prop31
280
     0
102
RTVSPost2010PropOp31
 70
     1
102
RTVSPost2010Prop32
280
     0
102
RTVSPost2010PropOp32
 70
     1
102
RTVSPost2010Prop33
280
     0
102
RTVSPost2010PropOp33
 70
     1
102
RTVSPost2010Prop34
280
     0
102
RTVSPost2010PropOp34
 70
     1
102
RTVSPost2010Prop35
280
     0
102
RTVSPost2010PropOp35
 70
     1
102
RTVSPost2010Prop36
280
     0
102
RTVSPost2010PropOp36
 70
     1
102
RTVSPost2010Prop37
 90
       50
102
RTVSPost2010PropOp37
 70
     1
102
RTVSPost2010Prop38
140
0.0
102
RTVSPost2010PropOp38
 70
     1
102
RTVSPost2010Prop39
140
1.0
102
RTVSPost2010PropOp39
 70
     1
102
RTVSPost2010Prop40
 90
        0
102
RTVSPost2010PropOp40
 70
     1
102
RTVSPost2010Prop41ColorIndex
 90
       18
102
RTVSPost2010Prop41ColorRGB
 90
        0
102
RTVSPost2010PropOp41
 70
     1
102
RTVSPost2010Prop42
 90
       50
102
RTVSPost2010PropOp42
 70
     1
102
RTVSPost2010Prop43
 90
        3
102
RTVSPost2010PropOp43
 70
     1
102
RTVSPost2010Prop44ColorIndex
 90
        5
102
RTVSPost2010Prop44ColorRGB
 90
      255
102
RTVSPost2010PropOp44
 70
     1
102
RTVSPost2010Prop45
280
     0
102
RTVSPost2010PropOp45
 70
     1
102
RTVSPost2010Prop46
 90
       50
102
RTVSPost2010PropOp46
 70
     1
102
RTVSPost2010Prop47
 90
       50
102
RTVSPost2010PropOp47
 70
     1
102
RTVSPost2010Prop48
 90
       50
102
RTVSPost2010PropOp48
 70
     1
102
RTVSPost2010Prop49
280
     0
102
RTVSPost2010PropOp49
 70
     1
102
RTVSPost2010Prop50
 90
       50
102
RTVSPost2010PropOp50
 70
     1
102
RTVSPost2010Prop51ColorIndex
 90
      256
102
RTVSPost2010Prop51ColorRGB
 90
-16777216
102
RTVSPost2010PropOp51
 70
     0
102
RTVSPost2010Prop52
140
1.0
102
RTVSPost2010PropOp52
 70
     0
102
RTVSPost2010Prop53
 90
        2
102
RTVSPost2010PropOp53
 70
     1
102
RTVSPost2010Prop54
  1
strokes_ogs.tif
102
RTVSPost2010PropOp54
 70
     1
102
RTVSPost2010Prop55
280
     0
102
RTVSPost2010PropOp55
 70
     1
102
RTVSPost2010Prop56
140
1.0
102
RTVSPost2010PropOp56
 70
     1
102
RTVSPost2010Prop57
140
1.0
102
RTVSPost2010PropOp57
 70
     1
  0
XRECORD
  5
34D
102
{ACAD_REACTORS
330
34C
102
}
330
34C
100
AcDbXrecord
280
     1
102
RTVSPropertyOp0
 70
     1
102
RTVSPropertyOp1
 70
     1
102
RTVSPropertyOp2
 70
     1
102
RTVSPropertyOp3
 70
     1
102
RTVSPropertyOp4
 70
     1
102
RTVSPropertyOp5
 70
     1
102
RTVSPropertyOp6
 70
     1
102
RTVSPropertyOp7
 70
     1
102
RTVSPropertyOp8
 70
     1
102
RTVSPropertyOp9
 70
     1
102
RTVSPropertyOp10
 70
     1
102
RTVSPropertyOp11
 70
     1
102
RTVSPropertyOp12
 70
     1
102
RTVSPropertyOp13
 70
     1
102
RTVSPropertyOp14
 70
     1
102
RTVSPropertyOp15
 70
     1
102
RTVSPropertyOp16
 70
     1
102
RTVSPropertyOp17
 70
     1
102
RTVSPropertyOp18
 70
     1
102
RTVSPropertyOp19
 70
     1
102
RTVSPropertyOp20
 70
     1
102
RTVSPropertyOp21
 70
     1
102
RTVSPropertyOp22
 70
     1
102
RTVSPropertyOp23
 70
     1
102
RTVSPropertyOp24
 70
     1
102
RTVSPropertyOp25
 70
     1
102
RTVSPropertyOp26
 70
     1
102
RTVSPropertyOp27
 70
     1
102
RTVSPropertyOp28
 70
     1
102
RTVSPropertyOp29
 70
     1
102
RTVSPropertyOp30
 70
     1
102
RTVSPropertyOp31
 70
     1
102
RTVSPropertyOp32
 70
     1
102
RTVSPropertyOp33
 70
     1
102
RTVSPropertyOp34
 70
     1
102
RTVSPropertyOp35
 70
     1
102
RTVSPropertyOp36
 70
     1
102
RTVSPropertyOp37
 70
     1
102
RTVSPropertyOp38
 70
     1
102
RTVSPropertyOp39
 70
     1
102
RTVSPropertyOp40
 70
     1
102
RTVSPropertyOp41
 70
     1
102
RTVSPropertyOp42
 70
     1
102
RTVSPropertyOp43
 70
     1
102
RTVSPropertyOp44
 70
     1
102
RTVSPropertyOp45
 70
     1
102
RTVSPropertyOp46
 70
     1
102
RTVSPropertyOp47
 70
     1
102
RTVSPropertyOp48
 70
     1
102
RTVSPropertyOp49
 70
     1
102
RTVSPropertyOp50
 70
     1
102
RTVSPropertyOp51
 70
     0
102
RTVSPropertyOp52
 70
     0
102
RTVSPropertyOp53
 70
     1
102
RTVSPropertyOp54
 70
     1
102
RTVSPropertyOp55
 70
     1
102
RTVSPropertyOp56
 70
     1
102
RTVSPropertyOp57
 70
     1
102
RTVSPost2010Prop28
280
     0
102
RTVSPost2010PropOp28
 70
     1
102
RTVSPost2010Prop29
280
     1
102
RTVSPost2010PropOp29
 70
     1
102
RTVSPost2010Prop30
280
     1
102
RTVSPost2010PropOp30
 70
     1
102
RTVSPost2010Prop31
280
     0
102
RTVSPost2010PropOp31
 70
     1
102
RTVSPost2010Prop32
280
     0
102
RTVSPost2010PropOp32
 70
     1
102
RTVSPost2010Prop33
280
     0
102
RTVSPost2010PropOp33
 70
     1
102
RTVSPost2010Prop34
280
     0
102
RTVSPost2010PropOp34
 70
     1
102
RTVSPost2010Prop35
280
     0
102
RTVSPost2010PropOp35
 70
     1
102
RTVSPost2010Prop36
280
     0
102
RTVSPost2010PropOp36
 70
     1
102
RTVSPost2010Prop37
 90
       50
102
RTVSPost2010PropOp37
 70
     1
102
RTVSPost2010Prop38
140
0.0
102
RTVSPost2010PropOp38
 70
     1
102
RTVSPost2010Prop39
140
1.0
102
RTVSPost2010PropOp39
 70
     1
102
RTVSPost2010Prop40
 90
        0
102
RTVSPost2010PropOp40
 70
     1
102
RTVSPost2010Prop41ColorIndex
 90
       18
102
RTVSPost2010Prop41ColorRGB
 90
        0
102
RTVSPost2010PropOp41
 70
     1
102
RTVSPost2010Prop42
 90
       50
102
RTVSPost2010PropOp42
 70
     1
102
RTVSPost2010Prop43
 90
        3
102
RTVSPost2010PropOp43
 70
     1
102
RTVSPost2010Prop44ColorIndex
 90
        5
102
RTVSPost2010Prop44ColorRGB
 90
      255
102
RTVSPost2010PropOp44
 70
     1
102
RTVSPost2010Prop45
280
     0
102
RTVSPost2010PropOp45
 70
     1
102
RTVSPost2010Prop46
 90
       50
102
RTVSPost2010PropOp46
 70
     1
102
RTVSPost2010Prop47
 90
       50
102
RTVSPost2010PropOp47
 70
     1
102
RTVSPost2010Prop48
 90
       50
102
RTVSPost2010PropOp48
 70
     1
102
RTVSPost2010Prop49
280
     0
102
RTVSPost2010PropOp49
 70
     1
102
RTVSPost2010Prop50
 90
       50
102
RTVSPost2010PropOp50
 70
     1
102
RTVSPost2010Prop51ColorIndex
 90
      256
102
RTVSPost2010Prop51ColorRGB
 90
-16777216
102
RTVSPost2010PropOp51
 70
     0
102
RTVSPost2010Prop52
140
1.0
102
RTVSPost2010PropOp52
 70
     0
102
RTVSPost2010Prop53
 90
        2
102
RTVSPost2010PropOp53
 70
     1
102
RTVSPost2010Prop54
  1
strokes_ogs.tif
102
RTVSPost2010PropOp54
 70
     1
102
RTVSPost2010Prop55
280
     0
102
RTVSPost2010PropOp55
 70
     1
102
RTVSPost2010Prop56
140
1.0
102
RTVSPost2010PropOp56
 70
     1
102
RTVSPost2010Prop57
140
1.0
102
RTVSPost2010PropOp57
 70
     1
  0
ENDSEC
  0
EOF
